Oops, an error
Loading. Please wait.

Bleed The Fifth tab

version 3
version 3

Whole song

Interactive

680 views 1 this week
no commentswrite comment
1 2 3 4 5
3 more votes to show rating
add to favorites
×
Save as Personal and add changes to this tab that will be seen only by you. Learn more ›
×
You can save this tab as Personal to edit and correct it or add notes. All changes will be seen only by you. Learn more »
launch autoscroll
font size
0
reset
how to read this tab
guitar tuner
edit
Autoscroll
slow
fast
+/-
esc
set tempo
stop
Bleed The Fifth
----------------

song-  Bleed The Fifth
band-  Divine Heresy
album- Bleed The Fifth

OK, i know that this is originally played on a 7 string guitar, but i transcribed 
this to 6 six string, so it will be easier, this probably won't be correct but it's worth a shot.

Whole Step Down (D G C F A D)


Intro

|-------------|--------------|--------------------------|  ---
|-------------|--------------|--------------------------|   |
|-------7\5/7-|-------8\7/10-|--------------------------|   |
|-------x-----|-------x------|--------------------8-----|   |
|-------5\3/5-|-------6\5/8--|-------8--11--8--7-----7--|   |
|2-1-0--------|2-1-0---------|0-0-0---------------------|   |
 PM---|        PM---|         PM---| TP---------------|     |
                                                            2x 
|-------------|--------------|--------------------------|   |
|-------------|--------------|--------------------------|   |
|-------7\5/7-|-------8\7/10-|--------------------------|   |
|-------x-----|-------x------|--------------------8-----|   |
|-------5\3/5-|-------6\5/8--|-------8--11--8--7--------|   |
|2-1-0--------|2-1-0---------|0-0-0---------------------|  ---
 PM---|        PM---|         PM---| TP------------|


Verse 1

|-------------------------|--------------------------|
|-------------------------|--------------------------|
|-------------------------|--------------------------|
|--------------5---5---7--|-------------10---10---7--|
|--------------3---2---5--|--------------8----7---5--|
|2-3-2--2-3-5----0---0----|2-3-2--2-3-5----0----0----|
 PM----------|   PM  PM    PM----------|   PM   PM

|-------------------------|---------------------------|
|-------------------------|---------------------------|
|-------------------------|---------------------------|
|--------------5---5---7--|-------------10---10---12--|
|--------------3---2---5--|--------------8----7---10--|
|2-3-2--2-3-5----0---0----|2-3-2--2-3-5----0----0-----|
 PM----------|   PM  PM    PM----------|   PM   PM

|-------------------------|--------------------------|
|-------------------------|--------------------------|
|-------------------------|--------------------------|
|--------------5---5---7--|-------------10---10---7--|
|--------------3---2---5--|--------------8----7---5--|
|2-3-2--2-3-5----0---0----|2-3-2--2-3-5----0----0----|
 PM----------|   PM  PM    PM----------|   PM   PM

|-------------------------|------------------------|
|-------------------------|------------------------|
|-------------------------|------------------------|
|--------------5---5---7--|------------------------|
|--------------3---2---5--|--------------/8--7--5--|
|2-3-2--2-3-5----0---0----|2-3-2--2-3-5--/6--5--3--|
 PM----------|   PM  PM    PM----------|


Chorus 1

|-------------------|----------------------------|  ---
|-------------------|----------------------------|   |
|-------------------|----------------------------|   |
|-------------------|----------------------8-----|   |
|-------------------|---------8--11--8--7-----7--|   |
|0-0-0-0---0-0-0-0--|0-0-0-0---------------------|   |
 PM-------------------------| TP---------------|     |
                                                     2x
|-------------------|----------------------------|   |
|-------------------|----------------------------|   |
|-------------------|----------------------------|   |
|-------------------|----------------------8-----|   |
|-------------------|---------8--11--8--7--------|   |
|0-0-0-0---0-0-0-0--|0-0-0-0---------------------|  ---
 PM-------------------------| TP------------|


Interlude

|-------------|--------------|--------------------------|
|-------------|--------------|--------------------------|
|-------7\5/7-|-------8\7/10-|--------------------------|
|-------x-----|-------x------|--------------------8-----|
|-------5\3/5-|-------6\5/8--|-------8--11--8--7-----7--|
|2-1-0--------|2-1-0---------|0-0-0---------------------|
 PM---|        PM---|         PM---| TP---------------|

|-------------|--------------|--------------------------|
|-------------|--------------|--------------------------|
|-------7\5/7-|-------8\7/10-|--------------------------|
|-------x-----|-------x------|--------------------8-----|
|-------5\3/5-|-------6\5/8--|-------8--11--8--7--------|
|2-1-0--------|2-1-0---------|0-0-0---------------------|
 PM---|        PM---|         PM---| TP------------|


Verse 2

|-------------------------|--------------------------|
|-------------------------|--------------------------|
|-------------------------|--------------------------|
|--------------5---5---7--|-------------10---10---7--|
|--------------3---2---5--|--------------8----7---5--|
|2-3-2--2-3-5----0---0----|2-3-2--2-3-5----0----0----|
 PM----------|   PM  PM    PM----------|   PM   PM

|-------------------------|---------------------------|
|-------------------------|---------------------------|
|-------------------------|---------------------------|
|--------------5---5---7--|-------------10---10---12--|
|--------------3---2---5--|--------------8----7---10--|
|2-3-2--2-3-5----0---0----|2-3-2--2-3-5----0----0-----|
 PM----------|   PM  PM    PM----------|   PM   PM

|-------------------------|--------------------------|
|-------------------------|--------------------------|
|-------------------------|--------------------------|
|--------------5---5---7--|-------------10---10---7--|
|--------------3---2---5--|--------------8----7---5--|
|2-3-2--2-3-5----0---0----|2-3-2--2-3-5----0----0----|
 PM----------|   PM  PM    PM----------|   PM   PM

|-------------------------|------------------------|
|-------------------------|------------------------|
|-------------------------|------------------------|
|--------------5---5---7--|------------------------|
|--------------3---2---5--|--------------/8--7--5--|
|2-3-2--2-3-5----0---0----|2-3-2--2-3-5--/6--5--3--|
 PM----------|   PM  PM    PM----------|


Chorus 2

|-------------------|----------------------------|
|-------------------|----------------------------|
|-------------------|----------------------------|
|-------------------|----------------------8-----|
|-------------------|---------8--11--8--7-----7--|
|0-0-0-0---0-0-0-0--|0-0-0-0---------------------|
 PM-------------------------| TP---------------|

|-------------------|----------------------------|
|-------------------|----------------------------|
|-------------------|----------------------------|
|-------------------|----------------------8-----|
|-------------------|---------8--11--8--7--------|
|0-0-0-0---0-0-0-0--|0-0-0-0---------------------|
 PM-------------------------| TP------------|

|-------------------|----------------------------|
|-------------------|----------------------------|
|-------------------|----------------------------|
|-------------------|----------------------8-----|
|-------------------|---------8--11--8--7-----7--|
|0-0-0-0---0-0-0-0--|0-0-0-0---------------------|
 PM-------------------------| TP---------------|

|-------------------|----------------------------|
|-------------------|----------------------------|
|-------------------|----------------------------|
|-------------------|----------------------------|
|-------------------|----------------------------|
|0-0-0-0---0-0-0-0--|0-0-0-0---------------------|
 PM-------------------------|


Bridge

|----------------------------------|----------------------------------|
|----------------------------------|----------------------------------|
|----------------------------------|----------------------------------|
|-------------------7--6-----7--6--|-------------------7--6-----7--9--|
|----------------------------------|----------------------------------|
|5--8--7--5--4---4--------4--------|5--8--7--5--4---4--------4--------|
 TP-----------|  PM TP--| PM TP--|  TP-----------|  PM TP--| PM TP--|

|----------------------------------|----------------------------------|
|----------------------------------|----------------------------------|
|----------------------------------|----------------------------------|
|-------------------7--6-----7--6--|-------------------7--6-----7--9--|
|----------------------------------|----------------------------------|
|5--8--7--5--4---4--------4--------|5--8--7--5--4---4--------4--------|
 TP-----------|  PM TP--| PM TP--|  TP-----------|  PM TP--| PM TP--|


(Give credit to vandoren I didn't feel like figuring this solo out)

|-------------------------------------------------------|
|13/-17/--14/--18/--17/--20/--18/--17h18p17----17-------|
|-------------------------------------------19----19-18-|
|-------------------------------------------------------|
|-------------------------------------------------------|
|-------------------------------------------------------|
 TP------------------------------|

|5-8-5-4-5-4---4-----------------------------------------------|
|------------7---7-5-7-5-4-5-4---4-----------------------------|
|------------------------------6---6-5-6-5---5---------4-------|
|------------------------------------------7---7-6-4-6---6-4-6-|
|--------------------------------------------------------------|
|--------------------------------------------------------------|

  T        T        T
|19-18----19-17----19-16-----T--------T--------T--------T--------T----|
|---------------------------19-17----19-15----19-16----19-14----19-13-|
|---------------------------------------------------------------------|
|---------------------------------------------------------------------|
|---------------------------------------------------------------------|
|---------------------------------------------------------------------|

Here tap the note as fast as you can

|--------------------------------------------------------------------|
|---------14h16-----------14h16--------14h16h17h19-------14h16h17h19-|
|13h14h16--------13h14h16--------14h16-------------14h16-------------|
|--------------------------------------------------------------------|
|--------------------------------------------------------------------|
|--------------------------------------------------------------------|
                  
|---------12h14h16----------12h14h16----------16h19-19^---|
|12h14h16----------12h14h16----------16h17h19-------------|
|---------------------------------------------------------|
|---------------------------------------------------------|
|---------------------------------------------------------|
|---------------------------------------------------------|

|-------------------|----------------------------|
|-------------------|----------------------------|
|-------------------|----------------------------|
|-------------------|----------------------------|
|-------------------|----------------------------|
|0-0-0-0---0-0-0-0--|0-0-0-0---------------------|
 PM-------------------------|

|-------------------|------------------|
|-------------------|------------------|
|-------------------|------------------|
|-------------------|------------------|
|-------------------|------------------|
|0-0-0-0---0-0-0-0--|0-0-0-0--x\-/12---|
 PM-------------------------|


Chorus 3

|-------------------|----------------------------|  ---
|-------------------|----------------------------|   |
|-------------------|----------------------------|   |
|-------------------|----------------------8-----|   |
|-------------------|---------8--11--8--7-----7--|   |
|0-0-0-0---0-0-0-0--|0-0-0-0---------------------|   |
 PM-------------------------| TP---------------|     |
                                                     2x
|-------------------|----------------------------|   |
|-------------------|----------------------------|   |
|-------------------|----------------------------|   |
|-------------------|----------------------8-----|   |
|-------------------|---------8--11--8--7--------|   |
|0-0-0-0---0-0-0-0--|0-0-0-0---------------------|  ---
 PM-------------------------| TP------------|


Outro

|---------------------------|---------------------------|
|---------------------------|---------------------------|
|---------------------------|---------------------------|
|---------------------------|---------------------------|
|---------------------------|------------------------1--|
|1-1-1-1-1-1-1-1-3-1-2-1-2--|1-1-1-1-1-1-1-1-3-1-2-1----|
 PM-------------|  PM  PM    PM-------------|  PM  PM

|---------------------------|---------------------------|
|---------------------------|---------------------------|
|---------------------------|---------------------------|
|---------------------------|---------------------------|
|---------------------------|-----------------x\\\\\----|
|1-1-1-1-1-1-1-1-3-1-2-1-2--|1-1-1-1-1-1-1-1--x\\\\\----|
 PM-------------|  PM  PM    PM-------------| pick slide

|---------------------------|---------------------------|
|---------------------------|---------------------------|  Repeat
|---------------------------|---------------------------|  until end
|---------------------------|---------------------------|
|---------------------------|------------------------1--|
|1-1-1-1-1-1-1-1-3-1-2-1-2--|1-1-1-1-1-1-1-1-3-1-2-1----|
 PM-------------|  PM  PM    PM-------------|  PM  PM


PM    palm mute
T     tap
h     hammer on
p     pull off
/     slide up
\     slide down

Hope it good!

            
            
Suggest correction
Creating personal tab
Creating personal tab
You can edit any tab online and save it as your Personal.

You can edit, replace or remove any tab part or add personal notes – all changes will be seen only by you.

Personal tabs can be accessed anytime from any device, even offline.
Learn more »
Give kudos to tab author, rate the tab!
1 2 3 4 5
comments
print report bad tab
guest
You may want to rate the tab now too:
select rating
Wanna post a correction for this tab? Suggest correction