Oops, an error
Loading. Please wait.

Las Luces De Esta Ciudad Tab

version 1
version 1

Whole song

Interactive

48,453 views 12 this week
1 commentread comment
1 2 3 4 5
excellent!
x 5
add to favorites
launch autoscroll
font size
0
reset
how to read this tab
guitar tuner
Autoscroll
slow
fast
+/-
esc
set tempo
stop
Help us to improve Ultimate-Guitar.com Take our survey!
×
.        .!ed3R +~           .
ed3R: El tab de esta cancion en esta pagina no esta completo y el solo tambn 
tiene pekeños errores, sake de oido la parte ke falta,
Disfruten:

INTRO:
e|--------------------------|
B|-1-111111-101-111111-1101-|
G|-2-222222-202-222222-2202-|
D|-3-333333-302-222222-2203-|
A|-3-333333-300-000000-0003-|
E|--------------------------|x2
pm   ......     ......

VERSE:
e|--------------------------|
B|-1-111111-101-111111-1101-|
G|-2-222222-202-222222-2202-|
D|-3-333333-302-222222-2203-|
A|-3-333333-300-000000-0003-|
E|--------------------------|x2
pm   ......     ......

 
e|---------------------------------|
B|-1-111111-101-111111-110---------|
G|-2-222222-202-222222-2200-000000-|
D|-3-333333-302-222222-2200-000000-|
A|-3-333333-300-000000-0002-222222-|x1
E|------------------------3-333333-|
pm   ......     ......      ......

Después del verso va esto, NO SE COMO SE LLAME PONGAMOSLE "POST-VERSE"(es lo k le 
falta al otro tab):

e|---------------------------------|
B|---10----------------------------|
G|------9-0-7-0-5-0-7--------------|
D|---------------------------------|
A|---------------------------------|
E|---------------------------------| x2

En la 3era vez hace esto:
e|-----------------------------------------|
B|---10------------------------------------|
G|------9-0-7-0-5-0-7-0-9-0-9-0-9-0-9------|
D|-----------------------------------------|
A|-----------------------------------------|
E|-----------------------------------------|

e|---------------------------------|
B|---10----------------------------|
G|------9-0-7-0-5-0-7--------------|
D|---------------------------------|
A|---------------------------------|
E|---------------------------------| x1

En la última vez hace esto:
(el bend es uno solo y va dando varios strumings)
e|---------------------------------|
B|---10----------------------------|
G|------9-0-7-0-5-7-4b<-- varios strummings y un solo bend en el 4b]
D|---------------------------------|
A|---------------------------------|
E|---------------------------------| 

[VERSO]

PRE-CHORUS:
e|---------------------------------|
B|---------------------------------|
G|---------------------------------|
D|-333333333333333-555555555555555-|
A|-333333333333333-555555555555555-|
E|-111111111111111-333333333333333-|x1
pm ............... ..........

CHORUS:
e|------------------|
B|------------------|
G|-----555----------|
D|-333-555-55555555-|
A|-333-333-55555555-|
E|-111-----33333333-|x3

e|-------------|
B|-------------|
G|-22222-------|
D|-22222-55555-|
A|-00000-55555-|
E|-------33333-|x1

SOLO:
e|------------------------------------------|
B|-3----3-5-3--------3-----3-5-3-------3/13-|
G|---55-------5-4-5-----55------------------|
D|------------------------------------------|
A|------------------------------------------|
E|------------------------------------------|

[VERSE]

[POST-VERSE]

[PRE-CHORUS]

[CHORUS]x2

BRIDGE:
e|-000---000---111-|
B|-111---111---000-|
G|-222---000---000-|
D|-333---222---000-|
A|-333---333---222-|
E|-xxx---xxx---333-|x3

e|-00--------|
B|-11--------|
G|-22--5-----|
D|-33--5-----|
A|-33--3-----|
E|-00--------|x1


Esto es con guitarra acústica:

e|-0000000-000-000000-0000-|
B|-1111111-101-111111-1011-|
G|-2222222-202-222222-2022-|
D|-3333333-302-222222-2033-|
A|-3333333-300-000000-0033-|
E|-xxxxxxx-xxx-xxxxxx-xxxx-|x4

e|-0000000-000-000000-0011111111-|
B|-1111111-101-111111-1000000000-|
G|-2222222-202-222222-2000000000-|
D|-3333333-302-222222-2000000000-|
A|-3333333-300-000000-0022222222-|     
E|-xxxxxxx-xxx-xxxxxx-xx33333333-|x1   

Ya con eléctrica:

e|-0~---1~-|
B|-1~---0~-|
G|-2~---0~-|
D|-2~---0~-|
A|-0~---2~-|
E|-x----3~-|


[CHORUS]x2

[SOLO]

Al final:
e|---------|
B|---------|
G|---------|
D|-3~---/5-|
A|-3~---/5-|
E|-1~---/3-|

LISTO ESTE TAB ESTA MAS COMPLETO QUE EL OTRO, SUERTE!
dudas, sugerencias, quejas a: blink.chivas-182@hotmail.com
Suggest correction
comments
print report bad tab
1 comment total.
0 reply
gogeta_chivero 10 wrote on April 7 2015, 05:48 pm

¿Cual es el efecto que utilizas en esta canción?

guest
You may want to rate the tab now too:
select rating
Please do not post tabs as comments. Select "correction" instead!