Oops, an error
Loading. Please wait.

Sed Tab

version 1
version 1

Whole song

Interactive

5,468 views 6 this week
no commentswrite comment
1 2 3 4 5
please rate
add to favorites
launch autoscroll
font size
0
reset
how to read this tab
guitar tuner
Tab Pro tools
  • play this tab
  • loop segment
  • change instrument
  • show fretboard
  • metronome
×
Best way to learn
"Sed"
Autoscroll
slow
fast
+/-
esc
set tempo
stop
Contributor
Tuning
D A D G B E
Transcribed by: Rodrigo Quintanar
Twitter: @rockdrigoqr
Tono de la canción: Gm/A#

Intro
Guitarra 1 Efren
e|-----------------------------------|
B|-333333333333333333333333----------|
G|-333222333222333333555555--x4------|
D|-555555555555333333555555----------|
A|-----------------------------------|
D|-----------------------------------|

Guitarra 1 Efren
e|-------------------------------------------------------------|
B|-333333333333333333333333------666666666666-8-8-8-8-8-8-8----|
G|-333222333222333333555555--x4--88888888888810101010101010----|
D|-555555555555333333555555------88888888888810101010101010----|
A|-------------------------------------------------------------|
D|-------------------------------------------------------------|

Guitarra 2 Ricci
e|--------------------------------------------------------------|
B|--------------------------------------------------------------|
G|--------------------------------------------------------------|
D|-555555555555111111333333-------1111111111113333333-----------|
A|-555555555555111111333333--x3---1111111111113333333-----------|
D|-555555555555111111333333-------1111111111113333333-----------|

Verso
Guitarra 1 Efren
e|--------------------------------------|
B|-3-3---3-3---3-3---3-3----------------|
G|-3-3---3-3---3-3---5-5--x4------------|
D|-5-5---5-5---5-5---5-5----------------|
A|--------------------------------------|
D|----xxx---xxx---xxx-------------------|
P.M.  ...   ...   ...  

Guitarra 2 Ricci
e|--------------------------------------------------------|
B|--------------------------------------------------------|
G|--------------------------------------------------------|
D|-5-5---5-5---5-5---5-5---1-1---1-1---1-1---1-1----------|
A|-5-5---5-5---5-5---5-5---1-1---1-1---1-1---1-1-----x2---|
D|-5-55555-55555-55555-55551-11111-11111-11111-1111-------|
P.M.  ...   ...   ...   ...   ...   ...   ...   ...

Pre-Coro
Guitarra 1 Efren
e|-------------------------------------------------------------|
B|-------------------------------------------------------------|
G|-12121212121212121214141414151515151515151515101010----------|
D|------------------------------------------------------x2-----|
A|-10101010101010101012121212131313131313131313-8-8-8----------|
D|-------------------------------------------------------------|

Guitarra 2 Ricci
e|----------------------------------------|
B|----------------------------------------|
G|----------------------------------------|
D|-555555555777888888888888---------------|
A|-555555555777888888888888--x2-----------|
D|-555555555777888888888888---------------|

Guitarra 1 Efren
e|--------------------------------------------------------------------------|
B|--------------------------------------------------------------------------|
G|-888888888888888888101010101010121212121212141414141414151515151515--15-14|
D|--------------------------------------------------------------------------|
A|-666666666666666666-8-8-8-8-8-8101010101010121212121212131313131313--13-12|
D|--------------------------------------------------------------------------|

Guitarra 2 Ricci
e|--------------------------------------------------------------|
B|--------------------------------------------------------------|
G|--------------------------------------------------------------|
D|-111111111111111111333333555555555555555555--5-5--------------|
A|-111111111111111111333333555555555555555555--5-5--------------|
D|-111111111111111111333333555555555555555555--5-5--------------|

Coro
Guitarra 1 Efren
e|-------------------------------------------6--6-------|
B|-------------------------------311311-------66-66-----|
G|-3333335555550h2h3h0h2h3h0h2h3h------0h2h3h-----------|
D|------------------------------------------------------|
A|------------------------------------------------------|
D|------------------------------------------------------|

Guitarra 2 Ricci
e|---------------------------------------------------------|
B|---------------------------------------------------------|
G|---------------------------------------------------------|
D|-111111111111111111111111555555555555555555555555--------|
A|-111111111111111111111111555555555555555555555555--x2----|
D|-111111111111111111111111555555555555555555555555--------|

Guitarra 1 Efren
e|-----------------------------------|
B|-----------------------------------|
G|-0h2h3h0h2h3h0h2h3h--x6------------|
D|-----------------------------------|
A|-----------------------------------|
D|-----------------------------------|

Guitarra 2 Ricci
e|--------------------------------------------------------------------------|
B|--------------------------------------------------------------------------|
G|--------------------------------------------------------------------------|
D|-111111111111111111111111555555555555777777888888111111111111888888777777-|
A|-111111111111111111111111555555555555777777888888111111111111888888777777-|
D|-111111111111111111111111555555555555777777888888111111111111888888777777-|

Puente 
Guitarra 2 Ricci
e|---------------------------------------------------------|
B|---------------------------------------------------------|
G|----------------3------------3--------------5------------|
D|-5-5-5--3h5h3h5h5-5--5-3h5---5-5--5-3h5h3h5h5-5--5-3h5---|
A|---------------------------------------------------------|
D|---------------------------------------------------------|

Guitarra 1 Efren
e|--------------------------------------------------------------|
B|--------------------------------------------------------------|
G|--------------------------------------------------------------|
D|--------------------------------------------------------------|
A|----1--------------1---3p1----------1------------1---3--1-----|
D|-5-5--5-3h5h3h5h5-5--5----3h5----5-5--5-3h5h3h5h5--5----------|

Guitarra 2 Ricci
e|--------------------------------------------------------------|
B|--------------------------------------------------------------|
G|----3--------------3---5p3----------3--------------3---5--3---|
D|-5-5--5-3h5h3h5h5-5--5----3h5----5-5--5-3h5h3h5h5-5--5--------|
A|--------------------------------------------------------------|
D|--------------------------------------------------------------|

comments
We did not receive enough feedback on this tab! Please rate:
print report bad tab
1 2 3 4 5
I want to post or [tab]
guest
You may want to rate the tab now too:
select rating
Please do not post tabs as comments. Select "correction" instead!