Oops, an error
Loading. Please wait.

Kati Baschau Maiti Kai Kaiusi Ma tab

6,612 views 111 this week
no commentswrite comment
1 2 3 4 5
x 4
add to favorites
×
Save as Personal and add changes to this tab that will be seen only by you. Learn more ›
×
You can save this tab as Personal to edit and correct it or add notes. All changes will be seen only by you. Learn more »
launch autoscroll
font size
0
reset
how to read this tab
guitar tuner
edit
Autoscroll
slow
fast
+/-
esc
set tempo
stop
Author
Kati Baschau Maiti Kai Kausi Ma (Diwas Gurung version)

Chords by Diwas Gurung himself. Tabbed by Gagan Atreya.

Standard guitar tuning.


Intro : F maj


F
Hey... kati baschau maiti kai kausi ma, maiti kai kausi ma

                     Dm
Lagcha aakha pakeko lausi ma

G         Bb         C         Dm        F         C         Dm         F
Maile ke garu, timi auchau ki arkai bey garu, timi auchau ki arkai bey garu

F
Ho... timro pani siudo bajhai cha, siudo bajhai cha

                       Dm
Ghar ma bau lai buhari khachai cha

G         Bb         C         Dm        F         C         Dm         F
Maile ke garu, timi auchau ki arkai bey garu, timi auchau ki arkai bey garu

F
Seto ghoda kya milyo joda, kya milyo joda

                    Dm
Swaudo jodi umkela, nachoda

G         Bb         C         Dm        F         C         Dm         F
Maile ke garu, timi auchau ki arkai bey garu, timi auchau ki arkai bey garu


First solo:

------------------------------------------------------------8----------------------------------------|E
-6--8--8/10--8--8--10p8--6--8--8/10--8--8--10p8----6--6--8-----10-8-10-8h10p8------------------------|B
-----------------------------------------------------------------------------------------------------|G
-----------------------------------------------------------------------------------------------------|D
-----------------------------------------------------------------------------------------------------|A
-----------------------------------------------------------------------------------------------------|E


------------------8----------------------------------------------------------------------------------|E
--6--6---------8-----10--8h10p8--6--6------------8--8/10--6----6--6--6-------------------------------|B
--------7--5----------------------------7--5--7--------------7---------------------------------------|G
-----------------------------------------------------------------------------------------------------|D
-----------------------------------------------------------------------------------------------------|A
-----------------------------------------------------------------------------------------------------|E


-----------------------------------------------------------------------------------------------------|E
--6-----------------8---8/10---6-----6--6------------------------------------------------------------|B
--------7--5----7-----------------7------------------------------------------------------------------|G
-----------------------------------------------------------------------------------------------------|D
-----------------------------------------------------------------------------------------------------|A
-----------------------------------------------------------------------------------------------------|E


Fast guitar run:

--17p13-------13-----------------------------------------------------13-15-17-15-20------------------|E
---------15------15----------------------------------------------------------------------------------|B
--------------------14-15-14------14-----------------------14-15-------------------------------------|G
------------------------------15------15-14---12--14--15---------------------------------------------|D
-----------------------------------------------------------------------------------------------------|A
-----------------------------------------------------------------------------------------------------|E


F
Umera ma ghara bar najode, ghara bar najode

                          Dm
Bhagya khutta mai jhilke lai chode

G         Bb        C          Dm          F       C          Dm        F
Maile ke garu, timi auchau ki arkai bey garu, timi auchau ki arkai bey garu


Bridge:

Dm/ Am/ Bb/Bb x2


Solo with e-bow:

-----------------------------------------------------------------------------------------------------|E
-18---18-17-15--13------10-13--15--13--10--8--10-8-6-------------------------------------------------|B
-----------------------------------------------------------------------------------------------------|G
-----------------------------------------------------------------------------------------------------|D
-----------------------------------------------------------------------------------------------------|A
-----------------------------------------------------------------------------------------------------|E


-----------------------------------------------------------------------------------------------------|E
--18-17-15-17-13----13-15-17-15-10----10-8-10-8-6--5--3--5/10----------------------------------------|B
-----------------------------------------------------------------------------------------------------|G
-----------------------------------------------------------------------------------------------------|D
-----------------------------------------------------------------------------------------------------|A
-----------------------------------------------------------------------------------------------------|E


-----------------------------------------------------------------------------------------------------|E
--10p8-10p8-10p8-10p8-10p8-10p8------13p10-13p10-13p10-13p10-13p10-13p10-----------------------------|B
-----------------------------------------------------------------------------------------------------|G
-----------------------------------------------------------------------------------------------------|D
-----------------------------------------------------------------------------------------------------|A
-----------------------------------------------------------------------------------------------------|E


-----------------------------------------------------------------------------------------------------|E
--15p13-15p13-15p13-17p15-17p15-17p15-18-------------------------------------------------------------|B
-----------------------------------------------------------------------------------------------------|G
-----------------------------------------------------------------------------------------------------|D
-----------------------------------------------------------------------------------------------------|A
-----------------------------------------------------------------------------------------------------|E

F
Timro ghar ma auna ta man lagcha, auna ta man lagcha

                    Dm
Authe tara kukur ko dar lagcha

G         Bb        C          Dm          F       C          Dm        F
Maile ke garu, timi auchau ki arkai bey garu, timi auchau ki arkai bey garu

F
Kalo cholo kum kum ma taleko, kum kum ma taleko

                      Dm
Tokne kukur ke kam le paleko

G         Bb        C          Dm          F       C          Dm        F
Maile ke garu, timi auchau ki arkai bey garu, timi auchau ki arkai bey garu


Final solo:

------------------------------------------------------------8----------------------------------------|E
-6--8--8/10--8--8--10p8--6--8--8/10--8--8--10p8----6--6--8-----10-8-10-8h10p8------------------------|B
-----------------------------------------------------------------------------------------------------|G
-----------------------------------------------------------------------------------------------------|D
-----------------------------------------------------------------------------------------------------|A
-----------------------------------------------------------------------------------------------------|E


------------------8----------------------------------------------------------------------------------|E
--6--6---------8-----10--8h10p8--6--6------------8--8/10--6----6--6--6-------------------------------|B
--------7--5----------------------------7--5--7--------------7---------------------------------------|G
-----------------------------------------------------------------------------------------------------|D
-----------------------------------------------------------------------------------------------------|A
-----------------------------------------------------------------------------------------------------|E


-----------------------------------------------------------------------------------------------------|E
--6-----------------8---8/10---6-----6--6--6---------------------------------------------------------|B
--------7--5----7-----------------7------------------------------------------------------------------|G
-----------------------------------------------------------------------------------------------------|D
-----------------------------------------------------------------------------------------------------|A
-----------------------------------------------------------------------------------------------------|E


Repeat:

------------------------------------------------------------8----------------------------------------|E
-6--8--8/10--8--8--10p8--6--8--8/10--8--8--10p8----6--6--8-----10-8-10-8h10p8------------------------|B
-----------------------------------------------------------------------------------------------------|G
-----------------------------------------------------------------------------------------------------|D
-----------------------------------------------------------------------------------------------------|A
-----------------------------------------------------------------------------------------------------|E


------------------8----------------------------------------------------------------------------------|E
--6--6---------8-----10--8h10p8--6--6------------8--8/10--6----6--6--6-------------------------------|B
--------7--5----------------------------7--5--7--------------7---------------------------------------|G
-----------------------------------------------------------------------------------------------------|D
-----------------------------------------------------------------------------------------------------|A
-----------------------------------------------------------------------------------------------------|E

Slightly different ending:

-------------------------------------------------5---------------------------------------------------|E
--6-----------------8---8/10---6-----6--6--6---------8p6--6--6----------8-8/10--10/13--10--8--6--6---|B
--------7--5----7-----------------7-----------------------------7-5-7--------------------------------|G
-----------------------------------------------------------------------------------------------------|D
-----------------------------------------------------------------------------------------------------|A
-----------------------------------------------------------------------------------------------------|E


-----------------------------------------------------------------------------------------------------|E
----6-------------8--8/10---6------6--6--6-----------------------------------------------------------|B
--------7--5--7-----------------7--------------------------------------------------------------------|G
-----------------------------------------------------------------------------------------------------|D
-----------------------------------------------------------------------------------------------------|A
-----------------------------------------------------------------------------------------------------|E

            
            
Suggest correction
Creating personal tab
Creating personal tab
You can edit any tab online and save it as your Personal.

You can edit, replace or remove any tab part or add personal notes – all changes will be seen only by you.

Personal tabs can be accessed anytime from any device, even offline.
Learn more »
comments
print report bad tab
guest
You may want to rate the tab now too:
select rating
Wanna post a correction for this tab? Suggest correction