Oops, an error
Loading. Please wait.

Long Time Gone Tab

24,057 views 36 this week
5 commentsread comments
1 2 3 4 5
x 13
add to favorites
launch autoscroll
font size
0
reset
how to read this tab
guitar tuner
Autoscroll
slow
fast
+/-
esc
set tempo
stop
Help us to improve Ultimate-Guitar.com Take our survey!
×
e|-----------0-----2-2-0---------------0-2-3-2-0-----------------------------|
B|-----0-3-3----3---------3-------0-3----------------------------------------|
G|--2---------------------------2--------------------------------------------|
D|---------------------------------------------------------------------------|
A|---------------------------------------------------------------------------|
E|---------------------------------------------------------------------------|

e|0-2-5-5-2-0-5-5-2-0-5-5-2-0-2-2-1-1-0-0------------------------------------|
B|----------------------------------------3----------------------------------|
G|---------------------------------------------------------------------------|
D|---------------------------------------------------------------------------|
A|---------------------------------------------------------------------------|
E|---------------------------------------------------------------------------|

You hear this riff many times through out the song. At one point, it gets a
little bit higher, but i'm not quite sure exactly what it is yet. This part is
for the banjo normally, but it's working for me on my guitar too. This is my
first tab, so correct me all you want! Thanks!
Suggest correction
comments
print report bad tab
5 comments total. Showing first comments.
0 reply
Nxt_JoeWalsh 10 Aug 15, 2005 12:00 AM

Great Tab

0 reply
btk 10 Apr 01, 2006 03:06 PM

i'd do the last bit:

e|0-2-5-5-2-0-5-5-2-0-5-5-2-0-2-2-2-2-1-0------------------------------------|
B|----------------------------------------3----------------------------------|
G|---------------------------------------------------------------------------|
D|---------------------------------------------------------------------------|
A|---------------------------------------------------------------------------|
E|---------------------------------------------------------------------------|

0 reply
guitarlas19 51 Jun 08, 2006 08:07 PM

id say you should probably do the one on the last part more than once like so
e]0-2-5-5-2-0-5-5-2-0-5-5-2-0-2-2-2-2-1-1-1-0-----]
G]-------------------------------------------3----]
D]------------------------------------------------]
A]------------------------------------------------]
E]------------------------------------------------]

guest
You may want to rate the tab now too:
select rating
Wanna post a correction for this tab? Suggest correction