Oops, an error
Loading. Please wait.

Lullaby Tab

version 1
version 1

Whole song

13,024 views 3 this week
no commentswrite comment
1 2 3 4 5
accurate
x 3
add to favorites
launch autoscroll
font size
0
reset
how to read this tab
guitar tuner
Autoscroll
slow
fast
+/-
esc
set tempo
stop
Help us to improve Ultimate-Guitar.com Take our survey!
×
Difficulty
novice
This is 100% correct and very easy to play. I noticed the only other tab on this song is 
quite
accurate so I decided I'd go ahead and make one. It's really quite simple just listen to 
song for
timing and tune the low E string down to a C.

This is played throughout the entire song.

E-----------------------|
B-----------------------|
G----------0------------|
D--3--0--2--2--3--0--3--|
A--3-----3-----3-----2--|
C--5-----0-----5-----0--|

There's only one part that you might need to know that is slightly different. It looks 
this:

This should end right before she says "cause I'm never never givin' you up" and let it 
through.
Then pause and start playing the main riff. It's easy to figure out once you listen to it.

E-----------------------|
B-----------------------|
G-----------------------|
D--3--0--2-----3~-------|
A--3-----3--0--3~-------|
C--5-----0-----5~-------|
Suggest correction
Give kudos to tab author, rate the tab!
1 2 3 4 5
comments
print report bad tab
guest
You may want to rate the tab now too:
select rating
Wanna post a correction for this tab? Suggest correction