Oops, an error
Loading. Please wait.

Lullaby Tab

version 3
version 3

Whole song

15,398 views 33 this week
no commentswrite comment
1 2 3 4 5
excellent!
x 7
add to favorites
launch autoscroll
font size
0
reset
how to read this tab
guitar tuner
Autoscroll
slow
fast
+/-
esc
set tempo
stop
Help us to improve Ultimate-Guitar.com Take our survey!
×
Author
Difficulty
novice
Here is the main riff for lullaby, ive tabbed it a little differently but the 
sound is fuller in my version i think :)

Tell me what you think...
_____________________________________________________________________________

Lullaby - Dixie chicks

        r      r            r        r
e|-------------------|---------------------|
G|-------------------|---------------------|
B|-------0-----------|-------0-------------|
D|----0-2-2-----0-2--|----0-2-2(0)----0----|
A|--3-0-3--3--3-0-3--|--3-0-3-3(0)--3-0-3--|
E|--1---------1------|--1-----------1------|

Slightly different version:

        r      r           r    r        r
e|---------------------|---------------------|
G|---------------------|---------------------|
B|-------0-------------|-------0----------5--|
D|--3-0-2-2---3-0-2(2)-|--3-0-2-2-0---3-0-5--|
A|--3-0-3--3--3-0-3(3)-|--3-0-3-3-----3-0-3--|
E|--1---------1--------|--1-----------1------|
_____________________________________________________________________________


Chords:

e|-----------------|-----------------|-----------------||-----------------|
G|-----------------|-----------------|-----------------||-----------------|
B|-----------------|-----------------|-----------------||----------5***---|
D|--3--3-3--0-0-0--|--3--3-3--0***---|--3--3-3--0-0-0--||--3--3-3--5***---|
A|--3--3-3--2-2-2--|--3--3-3--2***---|--3--3-3--2-2-2--||--3--3-3--3***---|
E|--1--1-1--3-3-3--|--1--1-1--3***---|--1--1-1--3-3-3--||--1--1-1---------|
 

Or you can just use C and F alternatively 
                   |---|  |-1-|
                   |-1-|  |-1-|
                   |-0-|  |-2-|
                   |-2-|  |-3-|
                   |-3-|  |---|
                   |---|  |---|
_____________________________________________________________________________
 
 r or * - let ring

( ) - strum quickly and quietly while letting ring,
      comes naturally when strumming, (not muted!)

 x  - muted
Suggest correction
comments
print report bad tab
guest
You may want to rate the tab now too:
select rating
Please do not post tabs as comments. Select "correction" instead!