Oops, an error
Loading. Please wait.

Some Days You Gotta Dance Tab

963 views 30 this week
no commentswrite comment
1 2 3 4 5
please rate
add to favorites
launch autoscroll
font size
0
reset
how to read this tab
guitar tuner
Autoscroll
slow
fast
+/-
esc
set tempo
stop
Help us to improve Ultimate-Guitar.com Take our survey!
×
Author
Difficulty
intermediate
Tabbed and updated by Vintage-Tweed
  
Intro:
e|-0---0-0-|---------|-----------------|---------|--------------|----------------|
B|-3h5-3-2-|-0---0---|-----------------|---------|--------------|----------------|
G|---------|-6/7-6/7-|-----------------|-4---4---|--------------|----------------|
D|---------|-5/6-5/6-|-2-2-2-2-2-2-----|-5h6-5h6-|-2-2-2-2-2-2--|-4brp2----------|
A|---------|-6/7-6/7-|-2---4-2-4-2-2h4-|---------|-2---4-2-4-2--|-------4brp2----|
E|---------|---------|-----------------|---------|--------------|-------------3b-|
                                               P.M.
e|------------------|---------|-------------|-------------------|
B|------------------|---------|-------------|-----0-------------|
G|------------------|-4---4---|-------------|-2h4-4-3-2---------|
D|--2-2-2-2-2-2-----|-5h6-5h6-|-2-2-2-2-2-2-|-----------4brp2---|
A|--2---4-2-4-2-2h4-|---------|-2---4-2-4-2-|-----------------4-|
E|------------------|---------|-------------|-------------------|
Verse 1:
   It was about..  ..ready to go            And the boss.. ..to show
e|-----------------------------------------|-----------------------------------|
B|---Boogie in E---------------------------|---Boogie in E---------------------|
G|-----------------------------------------|-----------------------------------|
D|-2-2-2-2-2-2--etc.-----------------------|-------------------------2-2-------|
A|-2---4-2-4-2--------------4br-2 4p2----2-|-----------------------------5-4-2-|
E|------------------------------------3b---|-----------------------------------|
 
   He said you..   ..'cause you're..  ..to stay       ..jumping.. ..to get away   
e|------------------------------------|--------------|----------------------------------|
B|------------------------------------|-----0-x-2--0-|---------4--4---------------------|
G|-2-2-2-2-2-2------------------------|----h1-x-2-h1-|---------4--4---------------------|
D|-2---4-2-4-2--etc.--2-2-2-2-2-2-----|--------------|---------4--4---------------------|
A|--------------------2---4-2-4-2-etc.|--------------|---------2--2---------------x-5b--|
E|------------------------------------|--------------|----------------------------------|
Chorus 1:
  Some days you gotta dance   ..the chance             ..and dance.. 
e|----------------------------|---------------------|-------------|---------|-------------------|
B|----------------------------|---------------------|-------------|-0-------|-----0-------------|
G|--Boogie in E-------4---4---|---------------------|-Boogie in E-|-6/7-6/7-|-2h4-4-3-2---------|
D|--------------------5h6-5h6-|---------------------|-------------|-5/6-5/6-|-----------4brp2---|
A|----------------------------|--------4br 2 4p2----|-------------|-6/7-6/7-|-----------------4-|
E|----------------------------|------------------3b-|-------------|---------|-------------------|
Verse 2:
  Well I was.. ..glass of tea                     ..feel about me..              ..My mind...  
e|------------------------------------------------|------------------------------|-------------|
B|------------------------------------------------|------------------------------|-------------|
G|--Boogie in E-----------------------------------|--Boogie in E-----------------|-Boogie in A-|
D|-----------------------------------2-4br-2----2-|-----------------6---4---2--0-|-------------|
A|-------------------------------2-4---------4b---|---------------/7--\5--\4--2--|-------------|
E|-------------------------0-2/4------------------|------------------------------|-------------|
 
 ..pacin..n't come...to do    Chorus     Bridge to Solo   Solo
e|-----------------|-----|-------------|----------------|-----------------|-----------------|
B|-5-4/5-----------|-3-3-|-------------|----------------|-----------------|-----------------|
G|-6-5/6---6/7-6/7-|-2-2-|-------------|----------------|-----------------|-----------------|
D|-5-4/5---5/6-5/6-|-1-1-|-------------|-4br-2----------|-4b4b-2-4p2----2-|-4b4b-2-4p2------|
A|---------6/7-6/7-|-2-2-|-------------|-------4br-2----|------------4b---|------------4b-2-|
E|-----------------|-----|-x-x-3b------|-------------3b-|-----------------|-----------------|

                             P.M.
e|------------------------|-7-7-7-7-7-7-7-7---------|-------------|---------|-0-0-0-|---------|
B|------------------------|-7b7b7b7b7b7b7b7br5----5-|-------------|---------|-3b3-2-|-0---0---|
G|---------------2------2-|--------------------7b---|---------3b2-|-------2-|-------|-6/7-6/7-|
D|---------2-4p2-4br2-4-2-|-------------------------|---4---------|---------|-------|-5/6-5/6-|
A|----0-3b----------------|-------------------------|-5b--4\2-----|-2br-0---|-------|-6/7-6/7-|
E|-4b---------------------|-------------------------|-------------|---------|-------|---------|
Chorus 3: accapella
...you gotta dance        ..to tense       ..dance          Outro
e|------------------------|----0-0-0-0-0-0-|---------------|----------------|--------------|
B|------------------------|--5---3---2---0-|---------------|----------------|--------------|
G|------------------------|----------------|---------------|----------------|--------------|
D|----------------------2-|----------------|-2-2-2-2-2-----|----------------|-4br2---------|
A|------------------2-4---|----------------|-2---4-2-4-etc.|-4br2-4br2-4br2-|------4br2----|
E|------------0-2/4-------|----------------|---------------|----------------|-----------3b-|

e|-----|----------||
B|-2-2-|--0---0---||
G|-2-2-|--6/7-6/7-||
D|-2-2-|--5/6-5/6-||
A|-0-0-|--6/7-6/7-||
E|-----|----------||
Suggest correction
Give kudos to tab author, rate the tab!
1 2 3 4 5
comments
print report bad tab
guest
You may want to rate the tab now too:
select rating
Wanna post a correction for this tab? Suggest correction