Oops, an error
Loading. Please wait.

Holiday tab

version 1
version 1

Whole song

5,607 views 1 this week
no commentswrite comment
1 2 3 4 5
3 more votes to show rating
add to favorites
×
Save as Personal and add changes to this tab that will be seen only by you. Learn more ›
×
You can save this tab as Personal to edit and correct it or add notes. All changes will be seen only by you. Learn more »
launch autoscroll
font size
0
reset
how to read this tab
guitar tuner
edit
Autoscroll
slow
fast
+/-
esc
set tempo
stop
Author
Difficulty
-------------------------------------------------------------------------------
                             Holiday - Dizzee Rascal
-------------------------------------------------------------------------------
Tabbed by: Anthony Cleaver

Tuning: Standard

Some quick notes
1. The timings are not exact, listen to the song to get them.
2. This is nothing more than an interpretation, the song is not played
   originally on a guitar

Intro

     E  E  E  E  E  E  E  E     E  E  E  E  Q.      E   
E||--------------------------|----------------------3--|
B||--------------------------|----------------------3--|
G||--------------------------|----------------------4--|
D||-----7-----7-----7-----7--|-----7-----7----------5--|
A||--------------------------|-------------------------|
E||--5-----5-----5-----5-----|--5-----5-----5\---------|


  E  E   E.   E.   Q    E      E   E   E.   E.   Q     E   
--5--7---8----8----8----7--|---8--10--12---12---12----10--|
--5--7---8----8----8----7--|---8--10--12---12---12----10--|
--5--7---9----9----9----7--|---9--11--12---12---12----11--|
--7--9--10---10---10----9--|--10--12--14---14---14----12--|
---------------------------|------------------------------|
---------------------------|------------------------------|


   E   E   E.   E.   Q     E      E  E  E.  E.  Q    E   
--12--10---8----8----8----10--|---8--7--5---5---5----3--|
--12--10---8----8----8----10--|---8--7--5---5---5----3--|
--12--11---9----9----9----11--|---9--7--5---5---5----4--|
--14--12--10---10---10----12--|--10--9--7---7---7----5--|
------------------------------|-------------------------|
------------------------------|-------------------------|

Main Riff

    E  E   E.   E.   Q    E      E   E   E.   E.   Q     E   
|---5--7---8----8----8----7--|---8--10--12---12---12----10--|
|---5--7---8----8----8----7--|---8--10--12---12---12----10--|
|*--5--7---9----9----9----7--|---9--11--12---12---12----11--|
|*--7--9--10---10---10----9--|--10--12--14---14---14----12--|
|----------------------------|------------------------------|
|----------------------------|------------------------------|


   E   E   E.   E.   Q     E      E  E  E.  E.  Q    E   3x
--12--10---8----8----8----10--|---8--7--5---5---5----3---||
--12--10---8----8----8----10--|---8--7--5---5---5----3---||
--12--11---9----9----9----11--|---9--7--5---5---5----4--*||
--14--12--10---10---10----12--|--10--9--7---7---7----5--*||
------------------------------|--------------------------||
------------------------------|--------------------------||


  E  E   E.   E.   Q    E      E   E   E.   E.   Q     E   
--5--7---8----8----8----7--|---8--10--12---12---12----10--|
--5--7---8----8----8----7--|---8--10--12---12---12----10--|
--5--7---9----9----9----7--|---9--11--12---12---12----11--|
--7--9--10---10---10----9--|--10--12--14---14---14----12--|
---------------------------|------------------------------|
---------------------------|------------------------------|


   E   E   E.   E.   Q     E      E  E  E.  E.  Q    E   
--12--10---8----8----8----10--|---8--7--5---5---5----L--|
--12--10---8----8----8----10--|---8--7--5---5---5----L--|
--12--11---9----9----9----11--|---9--7--5---5---5----L--|
--14--12--10---10---10----12--|--10--9--7---7---7----L--|
------------------------------|-------------------------|
------------------------------|-------------------------|

Chorus

    E.  E.  E   E.   E.  E      E.   E.  E   Q     Q     3x
|---------------------------|----------------------------||
|---5---5-------8----8------|---8----8------12----12-----||
|*--5---5-------9----9------|---9----9------12----12----*||
|*--7---7------10---10------|--10---10------14----14----*||
|---7---7------10---10------|--10---10------14----14-----||
|---5---5-------8----8------|---8----8------12----12-----||


   S  S  E   E   S  E.  E  S  S  S  S    E  E.  H        E.   
--15-15-13--12--10-12---8--8-10-12----|----------------------|
-----------------------------------10-|--L--8------------5---|
--12-12-10---9---7--9---5--5--7--9----|------------------5---|
------------------------------------7-|-----5------------7---|
--------------------------------------|----------------------|
--------------------------------------|----------------------|

Second Verse

    E.   E.   E.   Q     E.      E.   E.   E.   Q    E.   3x
|----------------------------|----------------------------||
|---7----8----8----8-----8---|---8----8----8----8----5----||
|*--7----9----9----9-----9---|--10----9----9----9----5---*||
|*--9---10---10---10----10---|--10---10---10---10----7---*||
|----------------------------|----------------------------||
|----------------------------|----------------------------||


  E.   E.   E.   Q     E.      E.   E.   E.   Q    S E   
---------------------------|-------------------------3--|
--7----8----8----8-----8---|---8----8----8----8------3--|
--7----9----9----9-----9---|--10----9----9----9------3--|
--9---10---10---10----10---|--10---10---10---10------5--|
---------------------------|----------------------------|
---------------------------|----------------------------|


  E  E   E.   E.   Q    E      E   E   E.   E.   Q     E   
--5--7---8----8----8----7--|---8--10--12---12---12----10--|
--5--7---8----8----8----7--|---8--10--12---12---12----10--|
--5--7---9----9----9----7--|---9--11--12---12---12----11--|
--7--9--10---10---10----9--|--10--12--14---14---14----12--|
---------------------------|------------------------------|
---------------------------|------------------------------|


   E   E   E.   E.   Q     E      E  E  E.  E.  Q    E   
--12--10---8----8----8----10--|---8--7--5---5---5----3--|
--12--10---8----8----8----10--|---8--7--5---5---5----3--|
--12--11---9----9----9----11--|---9--7--5---5---5----4--|
--14--12--10---10---10----12--|--10--9--7---7---7----5--|
------------------------------|-------------------------|
------------------------------|-------------------------|


  E  E   E.   E.   Q    E      E   E   E.   E.   Q     E   
--5--7---8----8----8----7--|---8--10--12---12---12----10--|
--5--7---8----8----8----7--|---8--10--12---12---12----10--|
--5--7---9----9----9----7--|---9--11--12---12---12----11--|
--7--9--10---10---10----9--|--10--12--14---14---14----12--|
---------------------------|------------------------------|
---------------------------|------------------------------|


   E   E   E.   E.   Q     E      E  E  E.  E.  Q    E   
--12--10---8----8----8----10--|---8--7--5---5---5----L--|
--12--10---8----8----8----10--|---8--7--5---5---5----L--|
--12--11---9----9----9----11--|---9--7--5---5---5----L--|
--14--12--10---10---10----12--|--10--9--7---7---7----L--|
------------------------------|-------------------------|
------------------------------|-------------------------|

Chorus Again

    E.  E.  E   E.   E.  E      E.   E.  E   Q     Q     3x
|---------------------------|----------------------------||
|---5---5-------8----8------|---8----8------12----12-----||
|*--5---5-------9----9------|---9----9------12----12----*||
|*--7---7------10---10------|--10---10------14----14----*||
|---7---7------10---10------|--10---10------14----14-----||
|---5---5-------8----8------|---8----8------12----12-----||


   S  S  E   E   S  E.  E  S  S  S  S    E  E.  H        E.   
--15-15-13--12--10-12---8--8-10-12----|----------------------|
-----------------------------------10-|--L--8----------------|
--12-12-10---9---7--9---5--5--7--9----|----------------------|
------------------------------------7-|--L--5----------------|
--------------------------------------|----------------------|
--------------------------------------|----------------------|

3rd Verse

  E  E  E  E  E.  E.  E     E  E  E  E  E.  E.  E     E  E  E  E  E.  E.  E   
-------------------------|-------------------------|-------------------------|
-------------------------|-------------------------|-------------------------|
-------------------------|-------------------------|-------------------------|
-------------------------|-------------------------|-------------------------|
-----7-----3------3------|-----3-----3------7------|-----7-----3------3------|
--5-----3-----1-------1--|--L-----3-----5-------5--|--L-----3-----1-------1--|


  E  E  E  E  E.  E.  E     E  E  E  E  E.  E.  E     E  E  E  E  E.  E.  E   
-------------------------|--L----------------------|-------------------------|
----------------------5--|--L--5--3--3--1---1---1--|--L--1--3--3--5---5---5--|
----------------------5--|--L--5--4--4--2---2---2--|--L--2--4--4--5---5---5--|
----------------------7--|--L--7--5--5--3---3---3--|--L--3--5--5--7---7---7--|
-----3-----3------7---7--|--L--7--5--5--3---3---3--|--L--3--5--5--7---7---7--|
--L-----3-----5-------5--|--L--5--3--3--1---1---1--|--L--1--3--3--5---5---5--|


  E  E  E  E  E.  E.  E     E  E  E  E  E.  E.  E     E  E   E.   E.   Q    E   
--L----------------------|----------------------3--|--5--7---8----8----8----7--|
--L--5--3--3--1---1---1--|--L--1--3--3--5---5---3--|--5--7---8----8----8----7--|
--L--5--4--4--2---2---2--|--L--2--4--4--5---5---4--|--5--7---9----9----9----7--|
--L--7--5--5--3---3---3--|--L--3--5--5--7---7---5--|--7--9--10---10---10----9--|
--L--7--5--5--3---3---3--|--L--3--5--5--7---7------|---------------------------|
--L--5--3--3--1---1---1--|--L--1--3--3--5---5------|---------------------------|


   E   E   E.   E.   Q     E      E   E   E.   E.   Q     E   
---8--10--12---12---12----10--|--12--10---8----8----8----10--|
---8--10--12---12---12----10--|--12--10---8----8----8----10--|
---9--11--12---12---12----11--|--12--11---9----9----9----11--|
--10--12--14---14---14----12--|--14--12--10---10---10----12--|
------------------------------|------------------------------|
------------------------------|------------------------------|


   E  E  E.  E.  Q    E     E  E   E.   E.   Q    E   
---8--7--5---5---5----3--|--5--7---8----8----8----7--|
---8--7--5---5---5----3--|--5--7---8----8----8----7--|
---9--7--5---5---5----4--|--5--7---9----9----9----7--|
--10--9--7---7---7----5--|--7--9--10---10---10----9--|
-------------------------|---------------------------|
-------------------------|---------------------------|


   E   E   E.   E.   Q     E      E   E   E.   E.   Q     E   
---8--10--12---12---12----10--|--12--10---8----8----8----10--|
---8--10--12---12---12----10--|--12--10---8----8----8----10--|
---9--11--12---12---12----11--|--12--11---9----9----9----11--|
--10--12--14---14---14----12--|--14--12--10---10---10----12--|
------------------------------|------------------------------|
------------------------------|------------------------------|


   E  E  E.  E.  Q    E   
---8--7--5---5---5----5--|
---8--7--5---5---5----5--|
---9--7--5---5---5----5--|
--10--9--7---7---7----7--|
-------------------------|
-------------------------|

Outro Chorus

    E.  E.  E  E.  E.  E     E.  E.  E  E.  E.  E   
|---5---5---3--3---3---1--|--1---1---1--1---1---1--|
|---5---5---3--3---3---1--|--1---1---1--1---1---1--|
|*--5---5---4--4---4---2--|--2---2---2--2---2---2--|
|*--7---7---5--5---5---3--|--3---3---3--3---3---3--|
|-------------------------|------------------------|
|-------------------------|------------------------|


  E.  E.  E  E.  E.  E     E.  E.  E  E.  E.  E   4x  E.  E.  E  E.  E.  E   
--1---1---3--3---3---5--|--5---5---5--5---5---5---||--5---5---5--5---5------|
--1---1---3--3---3---5--|--5---5---5--5---5---5---||--5---5---5--5---5---5--|
--2---2---4--4---4---5--|--5---5---5--5---5---5--*||--5---5---5--5---5---5--|
--3---3---5--5---5---7--|--7---7---7--7---7---7--*||--7---7---7--7---7---7--|
------------------------|-------------------------||---------------------7--|
------------------------|-------------------------||---------------------5--|


  E  E  E  E  E  E  E  S S    S S S S S S S S S S S S S S E   
---------------------------|------------------------------5--|
--5--5--5--5--5--5--5--5-5-|--5-5-5-5-5-5-5-5-5-5-5-5-5-5-5--|
--5--5--5--5--5--5--5--5-5-|--5-5-5-5-5-5-5-5-5-5-5-5-5-5-5--|
--7--7--7--7--7--7--7--7-7-|--7-7-7-7-7-7-7-7-7-7-7-7-7-7-7--|
--7--7--7--7--7--7--7--7-7-|--7-7-7-7-7-7-7-7-7-7-7-7-7-7-7--|
--5--5--5--5--5--5--5--5-5-|--5-5-5-5-5-5-5-5-5-5-5-5-5-5-5--|

Outro

  E.  E.  E  E.  E.  E     E.  E.  E  E.  E.  E     E.  E.  E  E.  E.  E   
--5---5---3--3---3---1--|--1---1---1--1---1---1--|--1---1---3--3---3---5--|
--5---5---3--3---3---1--|--1---1---1--1---1---1--|--1---1---3--3---3---5--|
--5---5---4--4---4---2--|--2---2---2--2---2---2--|--2---2---4--4---4---5--|
--7---7---5--5---5---3--|--3---3---3--3---3---3--|--3---3---5--5---5---7--|
--7---7---5--5---5---3--|--3---3---3--3---3---3--|--3---3---5--5---5---7--|
--5---5---3--3---3---1--|--1---1---1--1---1---1--|--1---1---3--3---3---5--|


  E.  E.  E  E.  E.  E   
--5---5---5--5---5---5--|
--5---5---5--5---5---5--|
--5---5---5--5---5---5--|
--7---7---7--7---7---7--|
--7---7---7--7---7---7--|
--5---5---5--5---5------|

This is a synth overlay in the actual song either play this or the previous 
riff

    E.  E.  E  E.  E.  E     E.  E.  E  E.  E.  E   
|---5---5---7--7---7---5--|--5---5---5--5---5---5--|
|---5---5---8--8---8---7--|--7---7---7--7---7---7--|
|*--5---5---9--9---9---7--|--7---7---7--7---7---7--|
|*--7---7---9--9---9---7--|--7---7---7--7---7---7--|
|---7---7---7--7---7---5--|--5---5---5--5---5---5--|
|-------------------------|------------------------|

  E.  E.  E  E.  E.  E     E.  E.  E  E.  E.  E   6x
--5---5---7--7---7---5--|--5---5---5--5---5---5---||
--7---7---8--8---8---5--|--5---5---5--5---5---5---||
--7---7---9--9---9---5--|--5---5---5--5---5---5--*||
--7---7---9--9---9---7--|--7---7---7--7---7---7--*||
--5---5---7--7---7---7--|--7---7---7--7---7---7---||
------------------------|-------------------------||



  E.  E.  E  E.  E.  E     E.  E.  E  E.  E.  E   
--5---5---3--3---3---1--|--1---1---1--1---1---1--|
--5---5---3--3---3---1--|--1---1---1--1---1---1--|
--5---5---4--4---4---2--|--2---2---2--2---2---2--|
--7---7---5--5---5---3--|--3---3---3--3---3---3--|
--7---7---5--5---5---3--|--3---3---3--3---3---3--|
--5---5---3--3---3---1--|--1---1---1--1---1---1--|

  E.  E.  E  E.  E.  E     E.  E.  E  E.  E.  E   
--1---1---3--3---3---5--|--5---5---5--5---5---5--|
--1---1---3--3---3---5--|--5---5---5--5---5---5--|
--2---2---4--4---4---5--|--5---5---5--5---5---5--|
--3---3---5--5---5---7--|--7---7---7--7---7---7--|
--3---3---5--5---5---7--|--7---7---7--7---7---7--|
--1---1---3--3---3---5--|--5---5---5--5---5------|


  Q     H.                     
--L\-----------------|-------||
--L\-----------------|-------||
--L\-----------------|-------||
--L\-----------------|-------||
--L\-----------------|-------||
---------------------|-------||




Duration Legend
---------------
W - whole
H - half
Q - quarter
E - 8th
S - 16th
T - 32nd
X - 64th
. - note dotted
|-n-|  - n-tuplets


Tablature Legend
----------------
L - tied note
/ -  slide into from below or out of upwards
\ -  slide into from above or out of downwards

            
            
Suggest correction
Creating personal tab
Creating personal tab
You can edit any tab online and save it as your Personal.

You can edit, replace or remove any tab part or add personal notes – all changes will be seen only by you.

Personal tabs can be accessed anytime from any device, even offline.
Learn more »
Give kudos to tab author, rate the tab!
1 2 3 4 5
comments
print report bad tab
guest
You may want to rate the tab now too:
select rating
Wanna post a correction for this tab? Suggest correction