Oops, an error
Loading. Please wait.

Love At Second Sight tab

697 views 3 this week
no commentswrite comment
1 2 3 4 5
1 last vote to show rating
add to favorites
×
Save as Personal and add changes to this tab that will be seen only by you. Learn more ›
×
You can save this tab as Personal to edit and correct it or add notes. All changes will be seen only by you. Learn more »
launch autoscroll
font size
0
reset
how to read this tab
guitar tuner
edit
Autoscroll
slow
fast
+/-
esc
set tempo
stop
    ____________________________
   / Love at Second Sight       /
  / Dizzy Mizz Lizzy           /
 / Forward in Reverse (2016)  /
/____________________________/


  key:    C minor
  time:   4/4
  tempo:  Q=144 bpm
  tuning: Dropped-C (C G C F A D)
  writer: Tim Christensen

----------------------------------------------------------------------------------------------------------



[Intro]
 PM------|     PM       PM-| 4x
-----||----------------------||
-----||o--------------------o||
-----||----------------------||
-----||----3-----3-----------||
-----||o-----5-----5~---5-3-o||
-0-0-||--0-----0-------------||


 PM    PM       PM---|     PM       PM---|                        PM------|
|-------------------|-------------------|-----------------|----------------------|
|-------------------|-------------------|-----------------|----------------------|
|-------------------|-------------------|-----------------|----------------------|
|--3-----3----------|--3-----3----------|-----------------|----------------------|
|----5-----5~---5-3-|----5-----5~---5-3-|5----------------|----------------------|
|0-----0------------|0-----0------------|--3b----5b----7~-|---10~-0-0-15-15-12~--|



[Pre-Verse]
 Cm                                      Bb/C
 PM    PM       PM---|     PM       PM---|     PM       PM---|     PM       PM|
|-------------------|-------------------|-------------------|-------------------|
|-------------------|-------------------|-------------------|-------------------|
|-------------------|-------------------|-------------------|-------------------|
|--3-----3----------|--3-----3----------|--3-2---3-2~-------|--3-2---3-2~-------|
|----5-----5~---5-3-|----5-----5~---5-3-|--3-3---3-3~---5-3-|--3-3---3-3~---5-3-|
|0-----0------------|0-----0------------|0-----0------------|0-----0------------|


 Ab/C                                    Cm
 PM    PM       PM---|     PM       PM-----|                      PM------|
|-------------------|-------------------|-----------------|----------------------|
|-------------------|-------------------|-----------------|----------------------|
|-------------------|-------------------|-----------------|----------------------|
|--5-3---5-3~-------|--5-3---5-3~-------|-----------------|----------------------|
|--1-1---1-1~---5-3-|--1-1---1-1~---5-3-|5----------------|----------------------|
|0-----0------------|0-----0------------|--3b----5b----7~-|---10~-0-0-15-15-12~--|



[Verse 1 - 2]
   Cm                                      Bb/C
   PM    PM       PM---|     PM       PM---|     PM       PM---|     PM       PM|
||--------------------|-------------------|-------------------|-------------------|
||o-------------------|-------------------|-------------------|-------------------|
||--------------------|-------------------|-------------------|-------------------|
||---3-----3----------|--3-----3----------|--3-2---3-2~-------|--3-2---3-2~-------|
||o----5-----5~---5-3-|----5-----5~---5-3-|--3-3---3-3~---5-3-|--3-3---3-3~---5-3-|
||-0-----0------------|0-----0------------|0-----0------------|0-----0------------|
         1.Wake up             I just wanna talk to you              And tell you what I'm 
         2.Hang on             You don't need to prove me wrong      Or bomb me to ob-


   Ab/C                                    Cm
   PM    PM       PM---|     PM       PM-----|                      PM------|
  |-------------------|-------------------|-----------------|-----------------------||
  |-------------------|-------------------|-----------------|----------------------o||
  |-------------------|-------------------|-----------------|-----------------------||
  |--5-3---5-3~-------|--5-3---5-3~-------|-----------------|-----------------------||
  |--1-1---1-1~---5-3-|--1-1---1-1~---5-3-|5----------------|----------------------o||
  |0-----0------------|0-----0------------|--3b----5b----7~-|---10~-0-0-15-15-12~---||
   going through               Wake up
   -livion                     Hang on



... If you want to support a contributor like me, check out the complete tab
    on my own site, where you will get both detailed pdfs and sound-files:


       www.playlikethegreats.com/guitartabs/love-at-second-sight-by-dizzy-mizz-lizzy


    Or check out my FULL ALBUM collection for the new album:


      'FORWARD IN REVERSE' album
       www.playlikethegreats.com/guitartabs/forward-in-reverse-album-by-dizzy-mizz-lizzy



Musical regards,
Maitinin
5th July 2016

            
            
Suggest correction
Creating personal tab
Creating personal tab
You can edit any tab online and save it as your Personal.

You can edit, replace or remove any tab part or add personal notes – all changes will be seen only by you.

Personal tabs can be accessed anytime from any device, even offline.
Learn more »
Give kudos to tab author, rate the tab!
1 2 3 4 5
comments
print report bad tab
guest
You may want to rate the tab now too:
select rating
Wanna post a correction for this tab? Suggest correction