Oops, an error
Loading. Please wait.

Mindgasm tab

580 views 3 this week
no commentswrite comment
1 2 3 4 5
3 more votes to show rating
add to favorites
×
Save as Personal and add changes to this tab that will be seen only by you. Learn more ›
×
You can save this tab as Personal to edit and correct it or add notes. All changes will be seen only by you. Learn more »
launch autoscroll
font size
0
reset
how to read this tab
guitar tuner
edit
Autoscroll
slow
fast
+/-
esc
set tempo
stop
    ____________________________
   / Mindgasm                   /
  / Dizzy Mizz Lizzy           /
 / Forward in Reverse (2016)  /
/____________________________/


  key:    G minor
  time:   4/4, shuffled 8th
  tempo:  Q=138 bpm
  tuning: Whole-step down (D G C F A d)
  writer: Tim Christensen

--------------------------------------------------------------------------------------



[Foreplay]
 |--------------------|--------------------|--------------------|----------------------|
 |--------------------|--------------------|--------------------|----------------------|
 |--------------------|--------------------|--------------------|----------------------|
 |--------------------|--------------------|--------------------|----------------------|
 |--------------------|--------------------|--------------------|----------7---------7-|
 |5--5-5--5-5--5-5--5-|5--5-5--5-5--5-5--5-|5--5-5--5-5--5-5--5-|x\------5---10-8-10---|
                                                                (pick slide)


[A1]
  Gm                                            Gm
 |--------------------|5^----------------------|--------------------|5-----------------------|
 |--------------------|5^----------------------|--------------------|5-----------------------|
 |--------------------|5^----------------------|--------------------|5-----------------------|
 |--------------------|x^----------------------|--------------------|------------------------|
 |--------------------|x^----------7---------7-|--------------------|------------7---------7-|
 |5--5-5--5-5--5-5--5-|5^-5-5--5-5---10-8-10---|5--5-5--5-5--5-5--5-|5--5-5--5-5---10-8-10---|


  Bb                      F                        Gm
 |-----------------------|------------------------|--------------------|5-----------------------|
 |-----------------------|------------------------|--------------------|5-----------------------|
 |-----------------------|------------------------|--------------------|5-----------------------|
 |-----------------------|------------------------|--------------------|------------------------|
 |8-7----10-1010-1010--0-|5--5-5--5-5-7---------7-|--------------------|------------7---------7-|
 |----10--8--8-8--8-8--0-|3--3-3--3-3---10-8-10---|5--5-5--5-5--5-5--5-|5--5-5--5-5---10-8-10---|



[B1]
  Gm                                             Gm
 |----------------------|-----------------------|----------------------|------------------------|
 |----------------------|-----------------------|----------------------|------------------------|
 |---------/9~-9-\7-5---|5~---------------------|---------/9~-9-\7-5---|5~----------------------|
 |--------------------7-|-----------------------|--------------------7-|------------------------|
 |----------------------|-----------7---------7-|----------------------|------------7---------7-|
 |5--5-5--5-------------|----5--5-5---10-8-10---|5--5-5--5-------------|----5--5-5----10-8-10---|


  Bb                           F                        Gm
 |----------------------------|------------------------|------------------------|--------------------|
 |----------------------------|--------0---------------|------------------------|--------------------|
 |-------------/14~-14-14p12--|12~-12\-0---------------|---------/17~-17-17p14--|14~--14~--14\---0---|
 |--------------------------14|--------0---------------|----------------------17|----------------0-5-|
 |8-7----10-10----------------|--------0---7---------7-|------------------------|----------------0---|
 |----10--8--8----------------|--------0-3---10-8-10---|5--5-5--5---------------|--------------------|



[C1]
                  PM----|                                         PM----|
 |------------------------|----------------------|------------------------|----------------------|
 |------------------------|----------------------|------------------------|----------------------|
 |------------------------|----------------------|------------------------|----------------------|
 |7p5---5-----------------|--------------------5-|7p5---5-----------------|--------------------5-|
 |----7---7-5-7-5-3-5-3---|----------------------|----7---7-5-7-5-3-5-3---|3h5~------------------|
 |----------------------3-|5~--------------------|----------------------5-|----------------------|




... If you want to support a contributor like me, check out the complete tab
    on my own site, where you will get both detailed pdfs and sound-files:


       www.playlikethegreats.com/guitartabs/mindgasm-by-dizzy-mizz-lizzy


    Or check out my FULL ALBUM collection for the new album:


      'FORWARD IN REVERSE' album
       www.playlikethegreats.com/guitartabs/forward-in-reverse-album-by-dizzy-mizz-lizzy


    Musical regards,
    Maitinin
    5th July 2016

            
            
Suggest correction
Creating personal tab
Creating personal tab
You can edit any tab online and save it as your Personal.

You can edit, replace or remove any tab part or add personal notes – all changes will be seen only by you.

Personal tabs can be accessed anytime from any device, even offline.
Learn more »
Give kudos to tab author, rate the tab!
1 2 3 4 5
comments
print report bad tab
guest
You may want to rate the tab now too:
select rating
Wanna post a correction for this tab? Suggest correction