Oops, an error
Loading. Please wait.

Silverflame tab

version 1
version 1

Whole song

Interactive

54,301 views 99 this week
5 commentsread comments
1 2 3 4 5
x 13
add to favorites
×
Save as Personal and add changes to this tab that will be seen only by you. Learn more ›
×
You can save this tab as Personal to edit and correct it or add notes. All changes will be seen only by you. Learn more »
launch autoscroll
font size
0
reset
how to read this tab
guitar tuner
edit
Autoscroll
slow
fast
+/-
esc
set tempo
stop
Author
Unregistered
[Intro]
e------------------0------------------------------0------------------------------------0-------------------|
b--------------8------8------------------------8-----8----------------------------8--------8------------|--|
g----------7------------7------------------7-------------7-------------------7-----------------7-----------|
d----10--------------------10-------10----------------------10-------10-------------------------10---------|
a-0-------------------------------0---------------------------------8--------------------------------------|
E----------------------------------------------------------------------------------------------------------|

e--------------------0-----------------------0----------------------------------0------------|
B----------------8---------------------10------10-------------------------8------8-----------|
G------------7--------------------7-----------------7------------------7--------------7------|
D------10-------------------10-------------------------10-------10----------------------10---|
A--8--------------------9-------------------------------------8------------------------------|
E--------------------------------------------------------------------------------------------|

---------------------0--------|
--------------6------6--------|
-----------7--------------7---|
----6----------------------6--|
---7--------------------------|
------------------------------|

e--------------------0--------------------------|
B---------------0-------0-----------------------|
G-----------5---------------5-------------------|
D------7------------------------7---------------|
A--0--------------------------------0-----------|
E-----------------------------------------------|

e------------------0------------------------------0------------------------------------0-------------------|
b--------------8------8------------------------8-----8----------------------------8--------8------------|--|
g----------7------------7------------------7-------------7-------------------7-----------------7-----------|
d----10--------------------10-------10----------------------10-------10-------------------------10---------|
a-0-------------------------------0---------------------------------8--------------------------------------|
E----------------------------------------------------------------------------------------------------------|
   Sorrow hides under the water ...

e--------------------0-----------------------0----------------------------------0-------------|
B----------------8---------------------10------10-------------------------8------8------------|
G------------7--------------------7-----------------7------------------7--------------7-------|
D------10-------------------10-------------------------10-------10----------------------10----|
A--8--------------------9-------------------------------------8-------------------------------|
E---------------------------------------------------------------------------------------------|

--------------------0--------|
-------------6------6--------|
----------7--------------7---|
---6----------------------6--|
--7--------------------------|
-----------------------------|

e--------------0----------------|
B-----------6-------------------|
G--------7----------------------|
D-----6-------------------------|
A--7----------------------------|
E-------------------------------|

e------------------0------------------------------0------------------------------------0-------------------|
b--------------8------8------------------------8-----8----------------------------8--------8------------|--|
g----------7------------7------------------7-------------7-------------------7-----------------7-----------|
d----10--------------------10-------10----------------------10-------10-------------------------10---------|
a-0-------------------------------0---------------------------------8--------------------------------------|
E----------------------------------------------------------------------------------------------------------|


e--------------------0-----------------------0----------------------------------0-----------|
B----------------8---------------------10------10-------------------------6------6----------|
G------------7--------------------7-----------------7------------------7--------------7-----|
D------10-------------------10-------------------------10---------6----------------------6--|
A--8--------------------9---------------------------------------7---------------------------|
E-------------------------------------------------------------------------------------------|

----------------0------------|
---------0-------0-----------|
-------5------------5--------|
---7-----------------7-------|
---0----------------------0--|
-----------------------------|

[Verse]
e--------------------------------------------------------------------------------------|
h--------------------------------------------------------------------------------------|
g--------0-------------0---------------h---------0-----------------------------|   :---|
d-----2----2------3-------3------------0---2--------2-------h-------0--------|   :-----|
a--0-------------------------------3----\__/-----------------0    2-------2------------|
E-------------1------------------------------------------3----\__/---------------------|
GIRL IN A GLASSBOX DRESSED IN WHITE ....

bridge       little dist.
e--------------------------------------------------------------------------------------------------|
h--------------------------------------------------------------------------------------------------|
g--------4-----------5------------5-------------5-------------5-----4-----0------2-----------------|
d-----2-----2----3-----3-----4------4------3------3------2-----2-----2------2----------------------|
a--0-----------0-----------0-------------0--------------0------------------------------------------|
E--------------------------------------------------------------------------------------------------|

refrain      heavy dist                                                  _
e-------------------------------------------------|     
h-------h------8-------h------6------h-------5|     /   
g-------4-5------------4--5----------4---5----| * /  *  
d---7---\_/---------7---\_/-------7----\_/-----|  /        
a------------------------------------------------|          
E------------------------------------------------|          
SAY MY NAME SILVERFLAME....

    |-------------3-----------------------------------|-------/--\----|
 |-----h--------------h--------6---------------5-|--5---6---5---3-----|
| ----4--5-----------4---5-----------4--5------|--5---5--------4------|
|--3--\_/--------3----\_/---------3---\_/-------|--5------------5-----|
 |-------------------------------------------------|------------------|
|-------------------------------------------------|-------------------|

                                                                  1  ___________  2
e-------______----------------------------------___------|-----------------------|
B-----/            \-------------------------------/       \-----|---------------|
G---4-----5-----4--------7-----5------4-----5-------4--*-|-----------------------|
D----5---------------5---5------5-----5------5----------*-|---7------------------|
A------------------------------------------------------------|-------------------|
E------------------------------------------------------------|-------------------|
After half of the solo this riff will be moved three frets up (you start at fret 10 instead of fret 7)

SORROW  HIDES UNDER THE WATER
SORROW IS MY ONLY FRIEND
SORROW STANDS BESIDE THE DOORWAY
SORROW LENDS A HELPING HAND

GIRL IN A GLASSBOX DRESSEED IN WHITE
HAPPY ENOUGH TO COMMIT SUICIDE
SHE SAID SILVERS MENT TO BURN FOREVER

SLEEPING FOREVER IN A BUBBLE OF BLUE
SAY WOULD YOU LIKE TO SEE HER POINT VIEW
SHE SAID SILVERS MENT TO BURN FOREWER     FOREWER

||:SAY MY NAME SILVERFLAME AND TAKE CONTROL
OF MY HEART OF MY MIND AND OF MY SOUL
WHAT A SHAME SILVERFLAME
THAT YOU CAN'T BURN FOREWER.:||
                                (Dizzy Miss Lizzy Silverflame 3/3
AND IN THE GARDEN THEIR?S A CHEEP HOTEL
ONLY INVITED IF YOUR THING WENT WELL
SHE SAID SILVER'S MENT TO BURN FOREWER

SLEEPING FOREWER IN A BUBBLE OF BLUE
SAY WOULD YOU LIKE TO SEE HER POINT OF VIEW
SHE SAID SILVER'S WENT TO BURN FOREWER.

Solo: The solo is based on a A-minor blues scale (E5E8A5A6A7D5D7) and some other tunes here and there. 
half the solo it is modulated one and a half step up (three frets) to C-minor blues scale (E8E11A8A9A10D8D10).



************************************

| h  Hammer-on
| /  Slide up
| \  Slide down

************************************
Suggest correction
Creating personal tab
Creating personal tab
You can edit any tab online and save it as your Personal.

You can edit, replace or remove any tab part or add personal notes – all changes will be seen only by you.

Personal tabs can be accessed anytime from any device, even offline.
Learn more »
comments
print report bad tab
5 comments total. Showing first comments.
0 reply
Sebastian A. 133 May 27, 2004 08:00 PM

nice tab!´
Dizzy Mizz Lizzy rocks!

+3 reply
Maitinin 19,543 Jan 10, 2008 12:53 PM

De første to akkorder blir spillet anderledes, da det dér VIRKELIG er en finger-twister:

Gm11               Eb6maj9
---------0-------| ---------0-------|
-------8---8-----| -------8---8-----|
---5-7-------7-5-| ---5-7-------7-5-|
-----------------| -----------------|
-0---------------| -8---------------|
-----------------| -----------------|

+1 reply
mgama 41 Mar 31, 2009 10:27 AM

Jeg var til koncert med ham i torsdags og stod næsten helt oppe foran, og han holdte som der står det greb der står i tabben i introen, og det gør jeg også selv..

Men omkvæddet kan spilles nemmere, men Tim spillede det ikke sårn til koncerten

Nem måde:

-------3-------1--------0|
---0h1-----0h1-----0h1---|
-2-------2-------2-------| X2
-------------------------|
-------------------------|
-------------------------

-------3-------1--------0|
---0h1-----0h1-----0h1---|
-------------------------|
-3------3-------3--------|
-------------------------|
-------------------------|

guest
Wanna post a correction for this tab? Suggest correction