Oops, an error
Loading. Please wait.

Something So Familiar tab

version 1
version 1

Whole song

Interactive

736 views 1 this week
no commentswrite comment
1 2 3 4 5
3 more votes to show rating
add to favorites
×
Save as Personal and add changes to this tab that will be seen only by you. Learn more ›
×
You can save this tab as Personal to edit and correct it or add notes. All changes will be seen only by you. Learn more »
launch autoscroll
font size
0
reset
how to read this tab
guitar tuner
edit
Autoscroll
slow
fast
+/-
esc
set tempo
stop
    ____________________________
   / Something So Familiar      /
  / Dizzy Mizz Lizzy           /
 / Forward in Reverse (2016)  /
/____________________________/


  key:    F major
  time:   4/4
  tempo:  Q=112 bpm
  tuning: Dropped-C (C G C F A D)
  writer: Tim Christensen

----------------------------------------------------------------------------------



[Intro]
   F(add2)                           Dsus2                             2x
||-----------------|----------------|----------------|-----------------||
||o----------------|----------------|----------------|----------------o||
||-----------------|----------------|----------------|-----------------||
||-----5-----7---5-|----7---7---5---|----2-----4---2-|-----------------||
||o--5-----5-------|--5-------------|--2-----2-------|----------------o||
||-5-----5-----5---|5-----5---5---0-|2-----2-----2---|-----------------||



[Verse 1]
  Fsus2                             Dsus2
 |----------------|----------------|----------------|----------------|
 |----------------|----------------|----------------|----------------|
 |----------5-----|----------5-----|----------2-----|----------------|
 |----7-------9-7-|----7-------9\4-|----4-2-4---5-4-|----4---4-2-----|
 |--5-----5-------|--5-----5-------|--2-------------|--2-----------2-|
 |5-----5---------|5-----5---------|2---------------|2-----2-----2---|
 "One way or the other       I will try not to push it aside


  Fsus2                             Dsus2
 |----------------|----------------|----------------|----------------|
 |----------------|----------------|----------------|------3~--------|
 |----------5-----|----------5-----|----------2-----|----0-----0-----|
 |----7-------9-7-|----7-------9\4-|----4-2-4---5-4-|--4---------4-0-|
 |--5-----5-------|--5-----5-------|--2-------------|----------------|
 |5-----5---------|5-----5---------|2---------------|2---------------|
  Someday I'll recover       And I'll try to do everything right



[Pre-Chorus 1]
  Bb                                Gm
 |----------------|----------------|----------------|----------------|
 |----------------|------3---------|----------------|----------------|
 |--------------0-|----0-----0-----|----------------|----------------|
 |--2---0-2---4---|--4---------4-0-|--2---0-2---2---|----------------|
 |3---3-----3-----|3---------------|0---0-----0-----|----------------|
 |----------------|----------------|----------------|----------------|
  Give me one more advice to take; One more advice



[Interlude 1]
  Fsus2                             Dsus2
 |----------------|----------------|----------------|----------------|
 |----------------|----------------|----------------|----------------|
 |----------------|----------------|----------------|----------------|
 |----5-----7---5-|----7---7---5---|----2-----4---2-|----------------|
 |--5-----5-------|--5-------------|--2-----2-------|----------------|
 |5-----5-----5---|5-----5---5---0-|2-----2-----2---|----------------|



[Verse 2]
  Fsus2                             Dsus2
 |----------------|----------------|----------------|----------------|
 |----------------|----------------|----------------|----------------|
 |----------5-----|----------5-----|----------2-----|----------------|
 |----7-------9-7-|----7-------9\4-|----4-2-4---5-4-|----4---4-2-----|
 |--5-----5-------|--5-----5-------|--2-------------|--2-----------2-|
 |5-----5---------|5-----5---------|2---------------|2-----2-----2---|
  One way or the other       I won't try not to get in your way


  Fsus2                             Dsus2
 |----------------|----------------|----------------|----------------|
 |----------------|----------------|----------------|------3~--------|
 |----------5-----|----------5-----|----------2-----|----0-----0-----|
 |----7-------9-7-|----7-------9\4-|----4-2-4---5-4-|--4---------4-0-|
 |--5-----5-------|--5-----5-------|--2-------------|----------------|
 |5-----5---------|5-----5---------|2---------------|2---------------|
  Someday I'll discover      Everything you've been trying to say



[Pre-Chorus 2]
  Bb                                Gm
 |----------------|----------------|----------------|----------------|
 |----------------|------3---------|----------------|----------------|
 |--------------0-|----0-----0-----|----------------|----------------|
 |--2---0-2---4---|--4---------4-0-|--2---0-2---2/7-|--7-7-5-5-5-----|
 |3---3-----3-----|3---------------|0---0-----0-----|0-0-0-0-0-0-----|
 |----------------|----------------|----------------|------------x\--|
  Give me one more advice to take; One more advice"




... If you want to support a contributor like me, check out the complete tab
    on my own site, where you will get both detailed pdfs and sound-files:


       www.playlikethegreats.com/guitartabs/something-so-familiar-by-dizzy-mizz-lizzy


    Or check out my FULL ALBUM collection for the new album:


      'FORWARD IN REVERSE' album
       www.playlikethegreats.com/guitartabs/forward-in-reverse-album-by-dizzy-mizz-lizzy



Musical regards,
Maitinin
16th May 2016

            
            
Suggest correction
Creating personal tab
Creating personal tab
You can edit any tab online and save it as your Personal.

You can edit, replace or remove any tab part or add personal notes – all changes will be seen only by you.

Personal tabs can be accessed anytime from any device, even offline.
Learn more »
Give kudos to tab author, rate the tab!
1 2 3 4 5
comments
print report bad tab
guest
You may want to rate the tab now too:
select rating
Wanna post a correction for this tab? Suggest correction