Oops, an error
Loading. Please wait.

Too Close To Stab intro tab

version 1
version 1

Intro

Interactive

1,022 views 1 this week
no commentswrite comment
1 2 3 4 5
2 more votes to show rating
add to favorites
×
Save as Personal and add changes to this tab that will be seen only by you. Learn more ›
×
You can save this tab as Personal to edit and correct it or add notes. All changes will be seen only by you. Learn more »
launch autoscroll
font size
0
reset
how to read this tab
guitar tuner
edit
Autoscroll
slow
fast
+/-
esc
set tempo
stop
Author
Difficulty
    _____________________
   / Too Close to Stab  /
  / Dizzy Mizz Lizzy   /
 / Dizzy Mizz Lizzy   /
/____________________/

Tuning: Full seep down (D G C F A D)
Tempo:  113 bpm


INTRO:
 D7(#9)          A7(b13)          Bb6/9
                 PM  PM|                          PM  PM|
|--------------------------------|--------------------------------|
|--------8---8-8---8-----8~--8-8-|--------8---8-8---8-----8---8-8-|
|--------7---7-7---8-----8~--8-8-|--------7---7-7---7-----7---7-7-|
|--------6---6-6---7-----7~--7-7-|--------7---7-7---7-----7---7-7-|
|--------------------------------|--------------------------------|
|0---0-----------7---7-7---------|8---8-----------8---8-8---------|


 D7(#9)          A7(b13)          Bb6/9
                 PM  PM|                          PM  PM|
|--------------------------------|--------------------------------|
|--------8---8-8---8-----8~--8-8-|--------8---8-8---8-----8---8-8-|
|--------7---7-7---8-----8~--8-8-|--------7---7-7---7-----7---7-7-|
|--------6---6-6---7-----7~--7-7-|--------7---7-7---7-----7---7-7-|
|--------------------------------|--------------------------------|
|0---0-----------7---7-7---------|8---8-----------8---8-8---------|


 C6/9                                      G5
                    PM    PM--|
|-----------------------------------------|-------------------------------------------|
|---------10--10-10----10-------10--10-10\|(5)----10-10-10-10-10-10-10-10-10-10-10-10-|
|----------9---9--9-----9--------9---9--9\|(4)-----9--9--9--9--9--9--9--9--9--9--9--9-|
|----------9---9--9-----9--------9---9--9\|(4)--7--7--7--7--7--7--7--7--7--7--7--7--7-|
|-----------------------------------------|-0---0-------------------------------------|
|/10-10-------------10----10-10-----------|-------------------------------------------|



 19th /February /16
 Just mail me at Maitinin@gmail.com with questions, comments and corrections!
+----------------------------------------------------------------------------+



...also check out my updated FULL ALBUM transcriptions for all the albums on my own site:


  'DIZZY MIZZ LIZZY' album
   www.playlikethegreats.com/guitartabs/dizzy-mizz-lizzy-album-by-dizzy-mizz-lizzy


  'ROTATOR' album
   www.playlikethegreats.com/guitartabs/rotator-album-by-dizzy-mizz-lizzy


  'THE BEST OF DIZZY MIZZ LIZZY' album
   www.playlikethegreats.com/guitartabs/the-best-of-dizzy-mizz-lizzy-album-by-dizzy-mizz-lizzy


  'FORWARD IN REVERSE' album
   www.playlikethegreats.com/guitartabs/forward-in-reverse-album-by-dizzy-mizz-lizzy


Musical regards,
Maitinin
16th May 2016

            
            
Suggest correction
Creating personal tab
Creating personal tab
You can edit any tab online and save it as your Personal.

You can edit, replace or remove any tab part or add personal notes – all changes will be seen only by you.

Personal tabs can be accessed anytime from any device, even offline.
Learn more »
Give kudos to tab author, rate the tab!
1 2 3 4 5
comments
print report bad tab
guest
You may want to rate the tab now too:
select rating
Wanna post a correction for this tab? Suggest correction