Oops, an error
Loading. Please wait.

Waterline Tab

version 2
version 2

Whole song

Interactive

9,562 views 3 this week
no commentswrite comment
1 2 3 4 5
1 last vote to show rating
add to favorites
launch autoscroll
font size
0
reset
how to read this tab
guitar tuner
Autoscroll
slow
fast
+/-
esc
set tempo
stop
Help us to improve Ultimate-Guitar.com Take our survey!
×
Author
Difficulty
advanced
    ____________________
   / Dizzy Mizz Lizzy  /  Hmm, I must admit that I've never really understood
  / Waterline         /  what this song is about. To be honest, I think this
 / Dizzy Mizz Lizzy  /  was one of Tim's first songs where his "poetic skills"
/___________________/  weren't really that developed yet, to put it nicely ;)


Tunings: Full step down (D G C F A D)
Sound: All the guitars are overdriven with that same unique Dizzy-overdrive.
Gtr 3 & 4 play the dampened part (the verses) while gtr 1 & 2 take care of
the heavy parts (the rest of the song). As all the guitar tracks are recorded
seperately, they're pan'ed in either left or side side of the sound landscape.
To be honest, I'm not sure wether gtr 1 & 3 and gtr 2 & 4 are the same track
or not, as this could easily be imitated by simply using the volume knob.

Guitar 1 - overdrive / left
Guitar 2 - overdrive / right
Guitar 3 - clean / left
Guitar 4 - clean / right

 Intro (main riff):
 110 bpm
 4/4
 Gtr 1 & 2
            PM                          PM                                         PM|
    S   +S  S  e   e   e   S e   S +E   S S     +e   e   e   S  S  S  S S  S  +E   S S
||----|--------------------------------------|-----------------------------------------|
||o---|--------------------------------------|-----------------------------------------|
||--9-|-(9)---10--13--14--13\10--9~(9)~~--13-|-(13)-14--16--19\14-14/16---13~(13)~~----|
||----|--------------------------------------|-----------------------------------------|
||o-7-|-(7)----8--11--12--11\8---7~(7)~~--11-|-(11)-12--14--17\12-12/14---11~(11)~~----|
||----|-----0---------------------------0----|-------------------------------------0-0-|


                                               1.
                   PM             PM                       PM|     PM|
   S  S S  S  +S   S  S  S S  E   S  S  S S S   +Q      E  S S E   S S S E
|---------------------------------------------|-------------------------------||
|---------------------------------------------|------------------------8-8~~-o||
|-14-13--------------14-13----------14-13---6-|-(6)------------7~~-----7-7~~--||
|---------14~(14)~-----------12~~-----------7-|-(7)-----7------7~~-----7-7~~--||
|-12-11--------------12-11----------12-11---7-|-(7)-----7------5~~-5-5-5-5~~-o||
|---------12~(12)~-0---------10~~-0---------5-|-(5)-----5--5-5----------------||


 2.
             PM|     PM|
  +Q      E  S S E   S S E.
|-----------------------------||
|------------------------8~~~-||
|-(6)------------7~~-----7~~~-||
|-(7)-----7------7~~-----7~~~-||
|-(7)-----7------5~~-5-5-5~~~-||
|-(5)-----5--5-5--------------||


 Break:
      3/4                     4/4
   PM----|             PM|
   S   S S e  e  S S S S S S   +Q     Q    Q    Q
||---|-----------------------|-----------------------|
||---|-----------------------|-----------------------|
||---|-----9--7--------------|-----------------------|
||---|-----------------------|-----------------------|
||---|-----7--5--0h1p0-----2-|-(2)---/3---/4---/5----|
||-0-|---0-------------4-3-0-|-(0)---/1---/2---/3----|
                                   just slide between
                                   three last ones


 Interlude:
 Gtr 3 & 4
(there aren't distinguished between gtr 3 & 4 before the 2nd Verse)
  a E    S S   E   E   E   S  S  E   E     E   S  S  S  E   S  S  S  S  S  S  E.
|---------------------------------------|-----------------------------------------|
|---------------------------------------|-----------------------------------------|
|----------10----------------10---------|--------10--------12----10---------------|
|-------12--------12------12--------12--|-----12-------12--------------11----12---|
|-8s10--------10------10--------10------|-10--------10--------10----10----10------|
|---------------------------------------|-----------------------------------------|


   E   S S   E   E   E   S  S  E   E     E   S  S  S  E   S  S  S  S  S  S  E.
|-------------------------------------|-----------------------------------------|
|-------------------------------------|-----------------------------------------|
|--------10----------------10---------|--------10--------12----10---------------|
|-----12--------12------12--------12--|-----12-------12--------------11----12---|
|-10--------10------10--------10------|-10--------10--------10----10----10------|
|-------------------------------------|-----------------------------------------|


 1st Verse:
     E   S S   E   E   E   S  S  E   E     E   S  S  S  E   S  S  S  S  S  S  E.
||--------------------------------------|-----------------------------------------|
||o-------------------------------------|-----------------------------------------|
||---------10----------------10---------|--------10--------12----10---------------|
||------12--------12------12--------12--|-----12-------12--------------11----12---|
||o-10--------10------10--------10------|-10--------10--------10----10----10------|
||--------------------------------------|-----------------------------------------|


   E   S S   E   E   E   S  S  E   E     E   S  S  S  E   S  S  S  S  S  S  E.
|-------------------------------------|-----------------------------------------|
|-------------------------------------|-----------------------------------------|
|--------10----------------10---------|--------10--------12----10---------------|
|-----12--------12------12--------12--|-----12-------12--------------11----12---|
|-10--------10------10--------10------|-10--------10--------10----10----10------|
|-------------------------------------|-----------------------------------------|


   E   S  S  S  S  S  S  S  S  S  S  S  e   S
|---------------------------------------------|
|---------------------------------------------|
|--------10----------12----10-----------------|
|-----12-------12----------------12----11--10-|
|-10--------10----10----10----10----10--9---8-|
|---------------------------------------------|


   +E   S S E   E  E   S S E   E    E   S S S  E   S S S S S S  e   S
|---------------------------------|-----------------------------------|
|---------------------------------|-----------------------------------|
|---------8--------------8--------|-------8-------10---8--------------|
|-(10)---------10-----10------10--|----10-----10-----------9---11--12-|
|--(8)--8---8------8-------8------|-8-------8--------8---8---9--9--10-|
|---------------------------------|-----------------------------------|


 1.
   +E    S  S  E   E   E   S  S  E   E     E   S  S  S  E   S  S  S  S  S  S  E.
|---------------------------------------|------------------------------------------||
|---------------------------------------|-----------------------------------------o||
|----------10----------------10---------|--------10--------12----10----------------||
|-(12)------------12------12--------12--|-----12-------12--------------11----12----||
|-(10)--10----10------10--------10------|-10--------10--------10----10----10------o||
|---------------------------------------|------------------------------------------||


 2.
            Gtr 1 & 2
 2/4                  4/4
  +Q        E   S  S    +E    S  S  S  S  S  S  S  S  S  S  S  S  E
|--------------------|------------------------------------------------|
|--------------------|------------------------------------------------|
|--------------------|----------12----------14----12------------------|
|-(12)-----12--13-14-|-(14)-----------14----------------13----14------|
|-(10)-----10--11-12-|-(12)--12----12----12----12----12----12----12\--|
|--------------------|------------------------------------------------|


 Pre-Chorus:
                                                       2/4
                                                                 PM
  Q   Q   Q   Q     Q   Q   Q   Q     Q   Q   Q   Q     E  E  E  E
|-----------------|-----------------|-----------------|-------------|
|-----------------|-----------------|-----------------|-------------|
|-----------------|-7---7---9---8---|-----------------|-7--7--7-----|
|-7---7---9---9---|-7---7---9---9---|-7---7---9---9---|-7--7--7-----|
|-7---7---9---9---|-5---5---9---9---|-7---7---9---9---|-5--5--5-----|
|-5---5---7---7---|---------7---7---|-5---5---7---7---|----------7--|


 4/4
  W                 H.         E   S
|-----------------|------------------||
|-----------------|------------------||
|-9---------------|-8----------x\----||
|-9---------------|-9----------x\----||
|-9---------------|-9----------x\----||
|-7---------------|-7----------x\----||


 Chorus (main riff):
Just play the same as the Intro being the main riff.


 Bridge:
                                |-3-|                          |-3-|
    S   +E  S S E  E  S S E  E  S S S   E  S S E  E  S S E  E  S S S
||----|---------0---------0-----------|--------0---------0-----------|
||o---|-------------------------------|------------------------------|
||----|-----2h4-------2h4-------2h4p2-|----2h4-------2h4-------2h4p2-|
||--2-|-(2)--------2---------2--------|-0---------0---------0--------|
||o---|-------------------------------|------------------------------|
||----|-------------------------------|------------------------------|


                                 PM       PM|
                         |-3-|
  E  S S E  E  S S E  E  S S S   E  E  E  S S  e  e  E.
|--------0---------0-----------|--------------------------||
|------------------------------|----5--5-------8--8--8~~-o||
|----2h4-------2h4-------2h4p2-|----5--5-------7--7--7~~--||
|------------------------------|----5--5-------7--7--7~~--||
|-4---------4---------4--------|-3--3--3--5-5--5--5--5~~-o||
|------------------------------|--------------------------||


 Break


 Interlude


 2nd Verse:
This is similar to the 1st Verse until the very last bar in the 1. ending
(1. volt), which is the first bar below. From there gtr 3 and 4 differs from
eachother.
Note that they just play the high melody notes in turns, so this is no problem
to play on a single guitar.


 Gtr 3
   E   S  S  S  S  S  S  E     S  S  Q
|-------------------------------------------|
|--------------------13----------10---------|
|--------10-------10----10----10----10~~~~~-|
|-----12-------12---------------------------|
|-10--------10------------------------------|
|-------------------------------------------|
|
|Gtr 4
|  E   S  S  S  S  E     S  S  E     S  E.
|-------------------------------------------|
|--------------------------12----------12~~-|
|--------10-------10----10----10----10------|
|-----12-------12---------------------------|
|-10--------10------------------------------|
|-------------------------------------------|


...and here, where they play their own thing, I've also seperated their
tab charts just to make it easier to see through.

**********
 Gtr 3
  PM-----------------------------------------------------|
  E  S S S E.   E  S S S E.     E  S S S S S S S S S S S E.
|-----------------------------|-------------------------------|
|-----------------------------|-------------------------------|
|-----------------------------|-------------------------------|
|------3-------------3--------|------3-------5---3------------|
|----5-----5~~~----5-----5~~~-|----5-----5-----------4---5~~~-|
|-3-------------3-------------|-3-----------------------------|


  PM-----------------------------------------------------|
  E  S S S E.   E  S S S E.     E  S S S S S S S S S S S E.
|-----------------------------|-------------------------------|
|-----------------------------|-------------------------------|
|-----------------------------|-------------------------------|
|------3-------------3--------|------3-------5---3------------|
|----5-----5~~~----5-----5~~~-|----5-----5-----------4---5~~~-|
|-3-------------3-------------|-3-----------------------------|


  PM---------------------------|
  E  S S S S S a S S S S S S S S S   +Q    +Q     E   S S E   E
|----------------------------------|-----------------------------|
|----------------------------------|-----------------------------|
|----------------------------------|--------------------8--------|
|------3-------3h5---3-------------|-----------------10------10--|
|----5-----5-------------5---4---3-|-(3)---(3)/---8-------8------|
|-3--------------------------------|-----------------------------|


**********
 Gtr 4
   PM------------------------------------------------------------------------|
   E   S  S S  E.   E   S  S    S  E.     E   S  S S  S S  a  S S  S S  S S  E.
|--------------------------------------|------------------------------------------|
|--------------------------------------|------------------------------------------|
|--------10---------------10b12--------|--------10--------10h12---10--------------|
|-----12------12~~-----12---------12~~-|-----12------12----------------11---12~---|
|-10---------------10------------------|-10---------------------------------------|
|--------------------------------------|------------------------------------------|


   PM---------------------------------------------------------------------|
   E   S  S S  E.   E   S  S S  E.     E   S  S S  S S  a  S S  S S  S S  E.
|-----------------------------------|------------------------------------------|
|-----------------------------------|------------------------------------------|
|--------10---------------10--------|--------10--------10h12---10--------------|
|-----12------12~~-----12------12~~-|-----12------12----------------11---12~---|
|-10---------------10---------------|-10---------------------------------------|
|-----------------------------------|------------------------------------------|


   PM-----------------------------------|
   E   S  S S  S S  a  S S  S S  S S  S S  S    +H          E   S S E   E
|--------------------------------------------|-----------------------------|
|--------------------------------------------|-----------------------------|
|--------10--------10h12---10----------------|--------------------8--------|
|-----12------12----------------12---11---10-|-(10)------------10------10--|
|-10-----------------------------------------|--------------8-------8------|
|--------------------------------------------|-----------------------------|


**********
 Gtr 3 & 4                    Gtr 1 & 2
                                     2/4                  4/4
  E   S S S  E   S S S S S S  e   S    +Q       E   S  S    +E    S  S  S  S  S  S  S  S 
S  S  S  S  E
|-----------------------------------|--------------------|------------------------------------------------|
|-----------------------------------|--------------------|------------------------------------------------|
|-------8-------10---8--------------|--------------------|----------12----------14----12------------------|
|----10-----10-----------9---11--12-|-(12)-----12--13-14-|-(14)-----------14----------------13----14------|
|-8-------8--------8---8---9--9--10-|-(10)-----10--11-12-|-(12)--12----12----12----12----12----12----12\--|
|-----------------------------------|--------------------|------------------------------------------------|


 Pre-Chorus


 Chorus


 2x Bridge


 Outro:
           PM                          PM                                         PM
   S   +S  S  e   e   e   S e   S +E   S S     +e   e   e   S  S  S  S S  S  +E   S  S
||---|--------------------------------------|------------------------------------------|
||---|--------------------------------------|------------------------------------------|
||-9-|-(9)---10--13--14--13\10--9~(9)~~--13-|-(13)-14--16--19\14-14/16---13~(13)~~--14-|
||---|--------------------------------------|------------------------------------------|
||-7-|-(7)----8--11--12--11\8---7~(7)~~--11-|-(11)-12--14--17\12-12/14---11~(11)~~--12-|
||---|-----0---------------------------0----|-------------------------------------0----|


                                                      PM|     PM|     PM
  S  S S  S S  S S  S S  S S  S S  S S S   +Q      E  S S E   S S E.  S
|----------------------------------------|------------------------------|
|----------------------------------------|------------------------8~~---|
|---13--------14---13--------14---13---6-|-(6)------------7~~-----7~~---|
|--------14-------------12-------------7-|-(7)-----7------7~~-----7~~---|
|---11--------12---11--------12---11---7-|-(7)-----7------5~~-5-5-5~~---|
|--------12-------------10-------------5-|-(5)-----5--5-5-------------0-|


    PM            PM|
  S S e  e  S S S S S S Q
|-----------------------------|
|-----------------------------|
|-----9--7--------------------|
|-----------------------------|
|-----7--5--0h1p0-------------|
|---0-------------4-3-0-------|

  Really easy
  You wanna know the answer
  Feel me easy
  You wanna know the answer
  You think I've got it in my mind
  And all the people think I'm blind

  Really easy
  You wanna know the answer
  Feel me easy
  You wanna know the answer
  You think I've got it in my mind
  And all the people think I cannot see

  I hide with an unpredicted smile
  She hides and she hides a little while

  She don't mind
  She took time
  In a crime
  It's just another waterline

  With your head in the clouds
  With my tears in the crowd


29th /December /07
Just mail me at Maitinin@gmail.com with questions, comments and corrections!
------------------------------------------------------------------------------



...also check out my updated FULL ALBUM transcriptions for all the albums on my own site:


  'DIZZY MIZZ LIZZY' album
   www.playlikethegreats.com/guitartabs/dizzy-mizz-lizzy-album-by-dizzy-mizz-lizzy


  'ROTATOR' album
   www.playlikethegreats.com/guitartabs/rotator-album-by-dizzy-mizz-lizzy


  'THE BEST OF DIZZY MIZZ LIZZY' album
   www.playlikethegreats.com/guitartabs/the-best-of-dizzy-mizz-lizzy-album-by-dizzy-mizz-lizzy


  'FORWARD IN REVERSE' album
   www.playlikethegreats.com/guitartabs/forward-in-reverse-album-by-dizzy-mizz-lizzy


Musical regards,
Maitinin
16th May 2016
Suggest correction
Give kudos to tab author, rate the tab!
1 2 3 4 5
comments
print report bad tab
guest
You may want to rate the tab now too:
select rating
Wanna post a correction for this tab? Suggest correction