Oops, an error
Loading. Please wait.

Keep On Tab

1,868 views 6 this week
no commentswrite comment
1 2 3 4 5
excellent!
x 4
add to favorites
launch autoscroll
font size
0
reset
how to read this tab
guitar tuner
Tab Pro tools
  • play this tab
  • loop segment
  • change instrument
  • show fretboard
  • metronome
Autoscroll
slow
fast
+/-
esc
set tempo
stop
Contributor
Difficulty
intermediate
By: Akonite

Riff A
e|---------------------------------------|
B|---------------------------------------|
G|---------------------------------------|
D|---------------------------------------|
A|----5//7--0---5------5//7--0---5-------|
E|-00---------3-----00---------3---------|

Riff B
e|---------------------------------------|
B|-0-2p0-0-2-3p0---0-2p0-0-2-3p0---------|
G|---------------------------------------|
D|---------------------------------------|
A|---------------------------------------|
E|---------------------------------------|

Riff C
e|-0~~---3-0-----0-0--3-0----------------|
B|-----------3------------3--------------|
G|---------------------------------------|
D|---------------------------------------|
A|---------------------------------------|
E|---------------------------------------|

Riff D
e|-----7---------------7-----------------|
B|-5~~8--7/8\7---5----8--7/8\7-----------|
G|------------------74-------------------|
D|---------------------------------------|
A|---------------------------------------|
E|---------------------------------------|


comments
print report bad tab
I want to post or [tab]
guest
You may want to rate the tab now too:
select rating
Please do not post tabs as comments. Select "correction" instead!