Oops, an error
Loading. Please wait.

Nngg Tab

version 2
version 2

Whole song

384 views 1 this week
no commentswrite comment
1 2 3 4 5
3 more votes to show rating
add to favorites
launch autoscroll
font size
0
reset
how to read this tab
guitar tuner
Autoscroll
slow
fast
+/-
esc
set tempo
stop
Help us to improve Ultimate-Guitar.com Take our survey!
×
Author
Difficulty
novice
Artist: Dj Champion
Song: Nngg
Album: Chill'em All

Tab Symbol: 
/ = slide


Part A
(in mute, it sounds preaty nice)

|-----------------------------------------------|
|-----------------------------------------------|
|----2---2---2---2--------------------------2---|
|--0---3---0---3-----repeat... then----------3--|
|----------------------------------1--0---------|
|-----------------------------------------------|


Part B
(repeat)

|------------5------------------3--5-|-------------5------------------------|
|--3--5/6--3---6--3---3--5/6--3-------|--3--5/6--3----6--3---3--5/6--3-----3|
|------------------------------------|---------------------------------2-0--|
|------------------------------------|--------------------------------------|
|------------------------------------|--------------------------------------|
|------------------------------------|--------------------------------------|

(then)

|------------5-------------------------------------------------|
|--3--5/6--3---6--3--3--5/6--3--1/3-1/3-1/3-1/3-1/3-1/3-1/3-1/3|
|--------------------------------------------------------------|
|--------------------------------------------------------------|
|--------------------------------------------------------------|
|--------------------------------------------------------------|


Part C

                              /1          /2
|----------------------------||----------||-----7-10--|
|----10-8----8-10-8---8-10-8-||---8-10-8-||---8-------|
|--7-------7--------7--------||-9--------||-9---------|
|----------------------------||----------||-----------|
|----------------------------||----------||-----------|
|----------------------------||----------||-----------|


Part D

|-------------------------------|
|-------------------------------|
|-------------------------------|
|--0-3/0---3--0-0-3/0--------0--|
|--------0----------------------|
|----------------------4-3-1----|

Part E
(is the same as D, but if you dont have the effect, it sounds good as so)

| ----------------------------------|
|-----------------------------------|
|-----------------------------------|
|--0-0-3-0-----3-0--0-0-3-0-------0-|
|----------0-0----------------------|
|---------------------------4-3-1---|

This is the chrono of the song 


PartA || 0,10 sec --- whole song
PartB ||            0,35sec - 0,55  |  1,03 - 1,20 | 1,24 - 2,00  |  2,56 - 3,40
PartC ||                              0,55 - 1,03 | 1,12 - 2,00          |       3,10 - 3,30  
PartD ||                                                            1,32 - 2,15
PartE ||                                                                         2,15 - 3,50


Enjoy!
From An Infected Champignon
i_am_quebecer@hotmail.com

Suggest correction
Give kudos to tab author, rate the tab!
1 2 3 4 5
comments
print report bad tab
guest
You may want to rate the tab now too:
select rating
Wanna post a correction for this tab? Suggest correction