Oops, an error
Loading. Please wait.

No Heaven Tab

version 1
version 1

Whole song

7,640 views 6 this week
6 commentsread comments
1 2 3 4 5
accurate
x 6
add to favorites
launch autoscroll
font size
0
reset
how to read this tab
guitar tuner
Autoscroll
slow
fast
+/-
esc
set tempo
stop
Help us to improve Ultimate-Guitar.com Take our survey!
×
Author
Difficulty
intermediate
By: Akonite

Verse
pm=Palm Mute
e|-------------------------------------------------|
B|-------------------------------------------------|
G|-------------------------------------------------|
D|-------------------------------------------------|
A|-----pm(567)-----pm(567)-----pm(567)-----pm(567)-|
E|-0-0---------0-0---------0-0---------5-3---------|

Chorus
e|-------------------------------------------------|
B|-------------------------------------------------|
G|-------------------------------------------------|
D|-------------------------------------------------|
A|-----5/6/7-------5/6/7-------5/6/7-------5/6/7---|
E|-0-0---------0-0---------0-0---------5-3---------|

Over And Over

Suggest correction
comments
print report bad tab
6 comments total. Showing first comments.
0 reply
sotoonfire 20 wrote on November 7 2006, 10:08 pm

average tab

0 reply
fhqwgads 178 wrote on March 26 2007, 07:15 pm

Don't forget that part where it goes
e--10/12-12--10/12-12--10/12-12--10/12
B---------------------------------------12/10

0 reply
Blinker182182 87 wrote on May 25 2007, 10:32 pm

not to good. thers more to the song. the guy who left the last comment was better

guest
You may want to rate the tab now too:
select rating
Please do not post tabs as comments. Select "correction" instead!