Oops, an error
Loading. Please wait.

Pluto Remember You Tab

25 views 1 this week
no commentswrite comment
1 2 3 4 5
2 more votes to show rating
add to favorites
launch autoscroll
font size
0
reset
how to read this tab
guitar tuner
Autoscroll
slow
fast
+/-
esc
set tempo
stop
Help us to improve Ultimate-Guitar.com Take our survey!
×
Author
Difficulty
intermediate
About this tab version
This is how Matthew plays the song. Was this info helpful? Yes No
[Intro] 

There are a couple ways to play this.  Here's how Matthew makes it happen live.
He fingerpicks the riffs.


[Intro and Verses]

(Rests on the downbeat)
    Dm           C            Am
e|---------------------------------------------------------------------------|
B|--6--6--6------5--5--5-----------------------------------------------------|
G|--7--7--7------5--5--5------5--5--5--5--5--5--5----------------------------|
D|----------------------------7--7--7--7--7--7--7----------------------------|
A|--5--5--5------3--3--3-----------------------------------------------------|
E|----------------------------5--5--5--5--5--5--5----------------------------|

    Dm           C            Am
e|---------------------------------------------------------------------------|
B|--6--6--6------5--5--5-----------------------------------------------------|
G|--7--7--7------5--5--5------5--5--5--5--5--5--5----------------------------|
D|----------------------------7--7--7--7--7--7--7----------------------------|
A|--5--5--5------3--3--3-----------------------------------------------------|
E|----------------------------5--5--5--5--5--5--5----------------------------|

    Dm           C            F
e|---------------------------------------------------------------------------|
B|--6--6--6------5--5--5------10-10-10-10-10-10-10---------------------------|
G|--7--7--7------5--5--5------10-10-10-10-10-10-10---------------------------|
D|---------------------------------------------------------------------------|
A|--5--5--5------3--3--3------8--8--8--8--8--8--8----------------------------|
E|---------------------------------------------------------------------------|

    F            G            Am
e|---------------------------------------------------------------------------|
B|--10-10-10-----12-12-12-----13-13-13-13-13-13-13---------------------------|
G|--10-10-10-----12-12-12-----14-14-14-14-14-14-14---------------------------|
D|---------------------------------------------------------------------------|
A|--8--8--8------10-10-10-----12-12-12-12-12-12-12---------------------------|
E|---------------------------------------------------------------------------|


[Chorus - He plays this over the other riff that's going]

e|-------------12p10---------------------------------------------------------|
B|-/13-13-13-13-----13-------------------------------------------------------|
G|--------------------12p10\9------------------------------------------------|
D|---------------------------10-10-10-10-10-10-10-12h14----------------------|
A|---------------------------------------------------------------------------|
E|---------------------------------------------------------------------------|

e|-------------12p10---------------------------------------------------------|
B|-/13-13-13-13-----13-------------------------------------------------------|
G|--------------------12p10\9------------------------------------------------|
D|---------------------------10-10-10-10-10-12h14----------------------------|
A|------------------------------------------------10-------------------------|
E|---------------------------------------------------------------------------|

e|-------------12p10---------------------------------------------------------|
B|-/13-13-13-13-----13-------------------------------------------------------|
G|--------------------12p10\9------------------------------------------------|
D|---------------------------10-10-10-10-10-10-10-12h14----------------------|
A|---------------------------------------------------------------------------|
E|---------------------------------------------------------------------------|


e|-------------12p10----------15-15-15-15-15-15-15/17------------------------|
B|-/13-13-13-13-----13-----13------------------------------------------------|
G|--------------------12p10--------------------------------------------------|
D|---------------------------------------------------------------------------|
A|---------------------------------------------------------------------------|
E|---------------------------------------------------------------------------|

That's the meat and potatoes of it.  
He does a solo in the live version I haven't sat down to write out yet;
I usually just improvise one.

-Neil
"Waar daar 'n wil is, is daar 'n weg."


************************************

| h  Hammer-on
| p  Pull-off
| /  Slide up
| \  Slide down

************************************
Suggest correction
Give kudos to tab author, rate the tab!
1 2 3 4 5
comments
print report bad tab
guest
You may want to rate the tab now too:
select rating
Wanna post a correction for this tab? Suggest correction