Oops, an error
Loading. Please wait.

All I Do Is Win Acoustic tab

1,345 views 33 this week
no commentswrite comment
1 2 3 4 5
2 more votes to show rating
add to favorites
×
Save as Personal and add changes to this tab that will be seen only by you. Learn more ›
×
You can save this tab as Personal to edit and correct it or add notes. All changes will be seen only by you. Learn more »
launch autoscroll
font size
0
reset
how to read this tab
guitar tuner
edit
Autoscroll
slow
fast
+/-
esc
set tempo
stop
Author
Difficulty
About this tab version
This is the only chord/tab-version. Was this info helpful? Yes No
This is just the verse riff and chorus chords.
[C#m B A# A Gm]

[Chorus]
[No chord]
All I do is 
  Bb                      C                     Dm
e|----------------------------------------------------|
B|-----------------------------------------------4----|
G|-7----------------------9----------------------7----|
D|-8----------------------10---------------------7----|
A|-8----------------------10---------------------5----|
E|-6----------------------8---------------------------|
   x  x                  x  x                    x  x  x  x
  win, win, win no matter what, got money on my mind I can never get enough

                   Bb                      C                  A (Just implied)
e|----------------------------------------------------------------|
B|----------------------------------------------------------------|
G|-----------------7-----------------------9------------------4---|
D|-----------------8-----------------------10-----------------7---|
A|-----------------8-----------------------10-----------------7---|
E|-----------------6-----------------------8------------------5---|
                   x  x                    x  x               x  x  x  x
  and every time I step up in the building everybody hands go up, and they there

  Bb                      C                     Dm
e|----------------------------------------------------|
B|-----------------------------------------------4----|
G|-7----------------------9----------------------7----|
D|-8----------------------10---------------------7----|
A|-8----------------------10---------------------5----|
E|-6----------------------8---------------------------|
   x  x                  x  x                    x  x  x  x
    And the stay there,     And the stay there,    And the stay there, cuz all I do is
  (up down, up down, up down, up down)

  Bb        C                        A
e|---------------------------------------|
B|---------------------------------------|
G|-7--------9------------------------4---|
D|-8--------10-----------------------7---|
A|-8--------10-----------------------7---|
E|-6--------8------------------------5---|
   x  x     x  x                     x  x  x  x
  Win, win, win and if you're going in put your hands in the air make them stay there

[Verse] 
(All verses play this 4 times)
    8/2 (If you're quick double every note)
    Dm    C     Dm    C     Dm          B
e|---------------------------------------------------------------------------|
B|---------------------------------------------------------------------------|
G|--7-7-7-5-----7-7-7-5-----7-7-7-7-----8-8-8-8------------------------------|
D|--7-7-7-5-----7-7-7-5-----7-7-7-7-----9-9-9-9------------------------------|
A|--5-5-5-3-----5-5-5-3-----5-5-5-5-----9-9-9-9------------------------------|
E|--------------------------------------7-7-7-7------------------------------|
    x   x       x   x       x   x       x   x   (where the beat is)

            
            
Suggest correction
Creating personal tab
Creating personal tab
You can edit any tab online and save it as your Personal.

You can edit, replace or remove any tab part or add personal notes – all changes will be seen only by you.

Personal tabs can be accessed anytime from any device, even offline.
Learn more »
Give kudos to tab author, rate the tab!
1 2 3 4 5
comments
print report bad tab
guest
You may want to rate the tab now too:
select rating
Wanna post a correction for this tab? Suggest correction