Oops, an error
Loading. Please wait.

Wild Thoughts intro tab

version 2
version 2

Intro

  • The acoustic lead intro to wild thoughts.

Whole song

9,445 views 834 this week
3 commentsread comments
1 2 3 4 5
x 16
add to favorites
×
Save as Personal and add changes to this tab that will be seen only by you. Learn more ›
×
You can save this tab as Personal to edit and correct it or add notes. All changes will be seen only by you. Learn more »
launch autoscroll
font size
0
reset
how to read this tab
guitar tuner
edit
Autoscroll
slow
fast
+/-
esc
set tempo
stop
About this tab version
The acoustic lead intro to wild thoughts. Was this info helpful? Yes No
[Intro]


E|-----8--10-|-10/11--11--11--11--11--10--10-|-10--10--8--8--8--------------|-------------------|
B|--8--------|-------------------------------|------------------------8-----|-------------------|
G|-----------|-------------------------------|------------------8/10------8-|-------------------|
D|-----------|-------------------------------|------------------------------|-10-------------8--|
A|-----------|-------------------------------|------------------------------|-------------------|
E|-----------|-------------------------------|------------------------------|-------------------|






[Chorus/Solo]

E|--15--15--16--15--------------------15--15--20--15----------------------------|
B|------------------16--13--16------------------------16--13--16----------------|
G|------------------------------------------------------------------------------|
D|------------------------------------------------------------------------------|
A|------------------------------------------------------------------------------|
E|------------------------------------------------------------------------------|


E|--15--13--15--15--16--15----------15--11--11---11--11--13--13/15--13----------|
B|--------------------------16--13------16--16---16---------------------16--13--|
G|------------------------------------------------------------------------------|
D|------------------------------------------------------------------------------|
A|------------------------------------------------------------------------------|
E|------------------------------------------------------------------------------|



****************
| /  slide up
****************
Suggest correction
Creating personal tab
Creating personal tab
You can edit any tab online and save it as your Personal.

You can edit, replace or remove any tab part or add personal notes – all changes will be seen only by you.

Personal tabs can be accessed anytime from any device, even offline.
Learn more »
comments
print report bad tab
3 comments total.
+3 reply
moyo420 167 Jun 26, 2017 08:39 AM

Thanks for the ratings guys :P

-1 reply
angelftdevil 10 Jul 02, 2017 02:09 PM

where is the whole song ???

guest
You may want to rate the tab now too:
select rating
Wanna post a correction for this tab? Suggest correction