Oops, an error
Loading. Please wait.

Wild Thoughts tab

version 1
version 1

Whole song

Video

33,898 views 1,965 this week
10 commentsread comments
1 2 3 4 5
x 15
add to favorites
×
Save as Personal and add changes to this tab that will be seen only by you. Learn more ›
×
You can save this tab as Personal to edit and correct it or add notes. All changes will be seen only by you. Learn more »
launch autoscroll
font size
0
reset
how to read this tab
guitar tuner
edit
Autoscroll
slow
fast
+/-
esc
set tempo
stop
[Chorus]

e|---------------------------------20----------------------------------------|
B|-20---20-21-20------------20---20----20------------20-18-20---20-21-20-----|
G|----------------20-17--20---------------20--17--20----------------------20-|
D|---------------------------------------------------------------------------|
A|---------------------------------------------------------------------------|
E|---------------------------------------------------------------------------|

e|---------------------------------------------------------------------------|
B|-------20---------------18-18/20-18----------------------------------------|
G|-17-20----20-20-20-20-20-------------20-17---------------------------------|
D|---------------------------------------------------------------------------|
A|---------------------------------------------------------------------------|
E|---------------------------------------------------------------------------|


[Outro]

e|---------------------------------------------------------------------------|
B|-20---20-21-20--------------20---20-21-20-------------20-18-20--20-21-20---|
G|-----------------20--17--20----------------20--17--20----------------------|
D|---------------------------------------------------------------------------|
A|---------------------------------------------------------------------------|
E|---------------------------------------------------------------------------|

e|--------------------20-----------------------------------------------------|
B|-------------20---20---18--18-16-15-18----------20---20-21-20--------------|
G|-20--17--20----------------------------20-19-17----------------20--17--20--|
D|---------------------------------------------------------------------------|
A|---------------------------------------------------------------------------|
E|---------------------------------------------------------------------------|

e|---------------------------------------------20----------------------------|
B|-20---20-18-20---20-21-20-------------20---20---20------------20---------18|
G|---------------------------20--17--20---------------20--17-20----20-20-20--|
D|---------------------------------------------------------------------------|
A|---------------------------------------------------------------------------|
E|---------------------------------------------------------------------------|

e|---------------------------------------------------------------------------|
B|----18/20-18\16p13---------------------------------------------------------|
G|-20------------------------------------------------------------------------|
D|---------------------------------------------------------------------------|
A|---------------------------------------------------------------------------|
E|---------------------------------------------------------------------------|


************************************

| p   Pull-off
| /   Slide up
| \   Slide down

************************************

            
            
Suggest correction
Creating personal tab
Creating personal tab
You can edit any tab online and save it as your Personal.

You can edit, replace or remove any tab part or add personal notes – all changes will be seen only by you.

Personal tabs can be accessed anytime from any device, even offline.
Learn more »
comments
print report bad tab
10 comments total. Showing first comments.
+8 reply
markfenn1193 10 Aug 03, 2017 07:29 PM

There is nothing wrong with this tab christiak207 is a troll and can stfu

+4 reply
camillepowell 10 Aug 03, 2017 08:00 PM

this is perfect except my guitar doesn't have 20 frets lol so it's a pain using a capo

+2 reply
jorutledge 10 Aug 27, 2017 05:37 PM

I love it

guest
You may want to rate the tab now too:
select rating
Wanna post a correction for this tab? Suggest correction