Oops, an error
Loading. Please wait.

Eurodancer Tab

version 1
version 1

Whole song

Interactive

7,640 views 6 this week
1 commentread comment
1 2 3 4 5
worth learning
x 3
add to favorites
launch autoscroll
font size
0
reset
how to read this tab
guitar tuner
Autoscroll
slow
fast
+/-
esc
set tempo
stop
Help us to improve Ultimate-Guitar.com Take our survey!
×
Author
Difficulty
novice
----------------------------------------------------------------------------
                             Euro Dancer - Dj Mangoo
----------------------------------------------------------------------------
Tabbed by:JK63
Email:jrk-1993@hotmail.com

Tuning: standard
intro and most of song
e|-------------------------------------------------------------------------|
B|------------------33-22--------------------------------------------------|
G|-222222-11--------------222222-44--111111--------------------------------|
D|------------4444--------------------------22-----------------------------|
A|-------------------------------------------------------------------------|
E|-------------------------------------------------------------------------|

the little bridge part has somthing to do with these two note

e|-------------------------------------------------------------------------|
B|-------------------------------------------------------------------------|
G|-------------------------------------------------------------------------|
D|-------------------------------------------------------------------------|
A|---2----4----------------------------------------------------------------|
E|-------------------------------------------------------------------------|
Suggest correction
Give kudos to tab author, rate the tab!
1 2 3 4 5
comments
print report bad tab
1 comment total.
0 reply
imjake6 10 wrote on December 7 2010, 07:22 pm

pretty good thanks :)
i would just say

e|-------------------------------------------------------------------------|
B|------------------33-22--------------------------------------------------|
G|-222222-11--------------222222-44--1111----------------------------------|
D|------------4444--------------------------2222-----------------------------|
A|-------------------------------------------------------------------------|
E|-------------------------------------------------------------------------|

guest
You may want to rate the tab now too:
select rating
Please do not post tabs as comments. Select "correction" instead!