Oops, an error
Loading. Please wait.

Nobody Speak Bass

1,138 views 21 this week
no commentswrite comment
1 2 3 4 5
x 3
add to favorites
launch autoscroll
font size
0
reset
guitar tuner
×
Best way to learn
"Nobody Speak"
Autoscroll
slow
fast
+/-
esc
set tempo
stop
Author
Difficulty
About this tab version
This is the standard tab for the song, I have changed nothing about it, this is how it is performed. Was this info helpful? Yes No
[Intro/Chorus]

G|-5-2-----------------------------------------------------------------------|
D|-----5-2-------------------------------------------------------------------|
A|---------5-3--0-0-0-0-0-0-0-0----------------------------------------------|
E|---------------------------------------------------------------------------|

Play this as soon as the song begins. Immediately move on to the verse riff. You also need to play this
during the chorus occassionally/

[Verse]

G|---------------------------------------------------------------------------|
D|-----------5-2-------------------------------------------------------------|
A|-0(x12)--0-----5-3-0-------------------------------------------------------|
E|---------------------------------------------------------------------------|

G|-------5-2-----------------------------------------------------------------|
D|-----------5-2-------------------------------------------------------------|
A|-0(x8)----------5-3-0------------------------------------------------------|
E|---------------------------------------------------------------------------|

This is essentially the entire song, just alternate which line you play.
There is some slight variations towards the end but it's only a slight mixup of the order, nothing
complicated.

As far as I can tell there is no bass during the chorus aside from occasionally
playing the intro riff.

Credit to user tittlekittles on Reddit for figuring out the note
sequence initially.
Suggest correction
Give kudos to tab author, rate the tab!
1 2 3 4 5
comments
print report bad tab
guest
You may want to rate the tab now too:
select rating
Wanna post a correction for this tab? Suggest correction