Oops, an error
Loading. Please wait.
We have Chord Pro version of Let Me Love You.
It's the closest thing you can get to the original song and it has interactive parts. Check out the tab »
×

Let Me Love You tab

version 2
version 2

Whole song

  • Full fingerstyle arrangement by andrew foy.

Interactive

Video

2,653 views 54 this week
no commentswrite comment
1 2 3 4 5
x 4
add to favorites
×
Save as Personal and add changes to this tab that will be seen only by you. Learn more ›
×
You can save this tab as Personal to edit and correct it or add notes. All changes will be seen only by you. Learn more »
launch autoscroll
font size
0
reset
how to read this tab
guitar tuner
edit
Autoscroll
slow
fast
+/-
esc
set tempo
stop
About this tab version
Full fingerstyle arrangement by andrew foy. Was this info helpful? Yes No
Andrew Foy's Arrangement
https://www.youtube.com/watch?v=G05ErDhDiUA

[Intro]
e|----------------------------------------------------------------------------|
B|----------------------------------------------------------------------------|
G|--5-5--5--5-4---4h5-5-5--5-4---4-5-5--5-4-4--5-5----------------------------|
D|--7-7--7--7-7---------------------------------------------------------------|
A|----------------3---3-3--3-3------------------------------------------------|
E|-------------------------------0-1-1--1-0-0--1-1----------------------------|

[Verse]
              o           o          o            o         o           o
e|----------------------------------------------------------------------------|
B|----------------------------------------------------------------------------|
G|------0---0h2-----------------0----0h2-0-0----------------------------------|
D|--2-2---2-----------------2-2---2-----------0h2-2-0-------0h2-----------0---|
A|------------0--0--x--0--0---x------3-----x--3--------x-3--------0-x-------x-|
E|------------------x---------x------------x-----------x----1-----1-x-1-1---x-|

      o           o            o         o           o            o
e|----------------------------------------------------------------------------|
B|----------------------------------------------------------------------------|
G|-----------------------0---0h2---------------0-----0h2-0-0------------------|
D|----0h2------------2-2---2---------------2-2---2------------0h2-2-0---------|
A|-3-------0-x---------x-------0--0-x-0--0---x-------3-----x--3--------x--3---|
E|----1----1-x--1-1----x------------x--------x-------------x-----------x------|

   o                         o
e|----------------------------------------------------------------------------|
B|---------------0h1-0---------------------0h1-0------------------------------|
G|---------0h2p0-------2-------------0h2p0-------2----------------------------|
D|-0h2-----------------------0h2----------------------------------------------|
A|------0--x-----------x--0-------0--x-----------x----------------------------|
E|-1----1--x-----------x-----1----1--x-----------x----------------------------|

[Prechorus]
      o                            o
e|----------------------------------------------------------------------------|
B|----------------------------------------------------4/5----3-3-3-1-1h3------|
G|--------------------------8/9----4/5-5-------5-5----------------------------|
D|---/10-10----7--10-10-7-------------------7------7-------0------------------|
A|-0-/8-----8--x---8--------x----0-0-----0--x--0------x--------------x--------|
E|-------------x------------x---------------x---------x------3-------x----3---|
                   o
e|--------------0-------------------------------------------------------------|
B|----3-3----------1----------------------------------------------------------|
G|-----------0-------2-----------2------------------------------8/9---3/4-4---|
D|-0-------------------------0-0----------/10-10----7--10-10-7----------------|
A|---------x-------0---0--x---------x--x--/8-----8--x---8-------x---0-0-------|
E|---------x--------------x---------x--x------------x-----------x-------------|

e|--------------------------------------------------0--0h1-0------------------|
B|------------4/5------3-3-3-1-1h3-------3-3-----------------3-1--------------|
G|---0--4-4-0------------------------------------0--------------------2-------|
D|-----------------0------------------0----------------0---------0--0---------|
A|-0-x--0-----x----------------x--------------x----------------x--------------|
E|---x--------x--------3-------x----3---------x----------------x--------------|

[Chorus]

e|------0-0--------------------------------------------1--0-0-----------------|
B|-1h3------------------------------------------------(0)---------------------|
G|---------------------------------9-9-----------0-0--------------2-----------|
D|-------------/10---10--10--10/12--------9------9-9\-------------3----3---3--|
A|-x---------0-0---x-0-0---0-x------------10--x--------x-------0-----x--------|
E|-x---------------x---------x---------0--8---x----8---x----------1--x---1----|

e|-1-0-0------------------------0-0-------------------------------------------|
B|-------------------------1h3------------------------------------------------|
G|-----------2----------------------------------------------9-9----------0-0--|
D|-----------3------3---3--------------/10---10--10---10/12--------9-----9-9\-|
A|-x------------x----------x---------0-0---x--0-0---0-x------------10--x------|
E|-x------0--1--x-----1----x---------------x----------x---------0--8---x---8--|

e|-1--0-0-----------------1-0-0--------1/3-1p0h1p0----------------------------|
B|(0)----------------------------------------------3--------------------------|
G|------------2---------------------2-----------------------------------------|
D|------------3----3---3------------3-----------------0-----------------------|
A|-x-------------x--------x---------------------------------------------------|
E|-x-------0--1--x---1----x------0--1-----------------------------------------|

[Breakdown]
   o         o               o        o                 o
e|----------------------------------------------------------0-----------------|
B|--------------------------------------------------------6-------------------|
G|----9-7----------9-7-----------9-7----------0-9-7-----------------------5---|
D|-/10-------10-10--------10-10---------10-10----------10------7--------7-----|
A|-0-------x-0----------x-------------x-------------x-----7----8--x-8-8------x|
E|---------x------------x-----8-------x-8-----------x-------------x----------x|

        o                            o        o              o        o
e|---------0------------------------------------------------------------------|
B|------6---------------------------------------------------------------------|
G|---5------------------5-------5-------9-7--------9-7----------9-7----------0|
D|-7----------7-------7-------7---7--/10------10-10------10-10--------10-10---|
A|------7-----8-x-8-8------x---------0------x-0--------x------------x---------|
E|--------------x----------x----------------x----------x-----8------x-8-------|

             o                         o
e|-------------0--------------------------0-----------------------------------|
B|-----------6-------------------------6--------------------------------------|
G|-9-7----------------------5------5------------------------------------------|
D|--------10------7-------7------7-----------7--------7-----------------------|
A|------x----7----8-x-8-8------x-------7-----8--x-8---------------------------|
E|------x-----------x----------x----------------x-----------------------------|

[Verse]
e|-0-3-0-3/5p3p0--/8p7p5h7p5--3--0-3-0--3/5-3-----0-0----------0-------------|
B|----------------------------------------------------3---1-3------------3---|
G|---------------------------------------------------------------2-------2---|
D|----------------------------------------------------------2----3---3-3-----|
A|-x-----0--------x--------------x------3------x--3-----x----------x-------x-|
E|-x--------------x--------------x-------------x--------x----------x-------x-|

e|-------0--------------0-3-0-3/5p3p0-------------0h3-----3/5--3--3--0-0-----|
B|-1--3-------------------------------------------0-------3/5--3--3--1---1/3-|
G|---------2-----------------------------------2-(0)---------------------1/5-|
D|----2----3-----3-3-3-----------------------2-------------------------------|
A|------------x---------x-----0---------x--0------x----x--2/3-----x--3-----x-|
E|------------x---------x---------------x---------x----x----------x--------x-|

e|------0--------------------0-----------------------------------------------|
B|-1--3-----------3-----1--3-------------------------------------------------|
G|-2------2-------2------------2------------(2)------------------------------|
D|----2---3---3-3----------2---3-----3-3-3--(3)------------------------------|
A|----------x--------x-------------x---------x---x---------------------------|
E|----------x--------x-------------x---------x---x---------------------------|

[Prechorus]
      o                            o
e|----------------------------------------------------------------------------|
B|----------------------------------------------------4/5----3-3-3-1-1h3------|
G|--------------------------8/9----4/5-5-------5-5----------------------------|
D|---/10-10----7--10-10-7-------------------7------7-------0------------------|
A|---/8-----8--x---8--------x----0-0-----0--x--0------x--------------x--------|
E|-------------x------------x---------------x---------x------3-------x----3---|
                   o
e|--------------0-------------------------------------------------------------|
B|----3-3----------1----------------------------------------------------------|
G|-----------0-------2-----------2------------------------------8/9---3/4-4---|
D|-0-------------------------0-0----------/10-10----7--10-10-7----------------|
A|---------x-------0---0--x---------x--x--/8-----8--x---8-------x---0-0-------|
E|---------x--------------x---------x--x------------x-----------x-------------|

e|--------------------------------------------------0--0h1-0------------------|
B|------------4/5------3-3-3-1-1h3-------3-3-----------------3-1--------------|
G|---0--4-4-0------------------------------------0--------------------2-------|
D|-----------------0------------------0----------------0---------0--0---------|
A|-0-x--0-----x----------------x--------------x----------------x--------------|
E|---x--------x--------3-------x----3---------x----------------x--------------|

[Chorus]
e|------0-0--------------------------------------------1--0-0-----------------|
B|-1h3------------------------------------------------(0)---------------------|
G|---------------------------------9-9-----------0-0--------------2-----------|
D|-------------/10---10--10--10/12--------9------9-9\-------------3----3---3--|
A|-x---------0-0---x-0-0---0-x------------10--x--------x-------0-----x--------|
E|-x---------------x---------x---------0--8---x----8---x----------1--x---1----|

e|-1-0-0------------------------0-0-------------------------------------------|
B|-------------------------1h3------------------------------------------------|
G|-----------2----------------------------------------------9-9----------0-0--|
D|-----------3------3---3--------------/10----10--10--10/12--------9-----9-9\-|
A|-x------------x----------x---------0-0---x--0-0---0-x------------10--x------|
E|-x------0--1--x-----1----x---------------x----------x---------0--8---x---8--|

e|-1--0-0---------1/3-1p0h1p0-------------------------------------------------|
B|(0)-------------------------------------------------------------------------|
G|------------2---------------------------------------------------------------|
D|------------3---------------------------------------------------------------|
A|-x--------------------------------------------------------------------------|
E|-x-------0--1---------------------------------------------------------------|

[Bridge - palm mute bass notes]

e|----------------------------------------------------------------------------|
B|----------------------------------------------------------------------------|
G|-/9-9-9---9---6/7-7-7---7-----9-9-9---9---7-7-7---7------9-9-9---9----------|
D|--------------------------10--7-----------7----------10-------------7-------|
A|-0------0---0-0-------0----------------------------------8-----8------------|
E|------------------------------8-----8---8-8-----8----8----------------------|

e|-------------------------------------------------5/8--7p5h7-----------------|
B|----------------------------------------------------------------------------|
G|--9/12-10-9h10p9h10p9--------9-9-9----9----------------------/9-9-9---9-----|
D|------------------------12\-----------7----7-----0--------------------------|
A|-----------------------------8-----8-----8---8---------------0------0---0---|
E|----------------------------------------------------------------------------|

e|----------------------------------------------------------------------------|
B|-----------------------------7/8-6--5h6p5h6p5-----------------------0-------|
G|-6/7-7-7---7-----9-9-9---9---------------------9-9-9----9-------------------|
D|-------------10--7--------------------------------------7----7---7----------|
A|-0-------0-------------------------------------8-----8-----8---8--------x---|
E|-----------------8-----8------------------------------------------------x---|

e|----------------------------------------------------------------------------|
B|-0h1----1---1h3-------------------------------------------------------------|
G|--------2---2-------2-------------------------------------------------------|
D|------3----------3-----3----------------------------------------------------|
A|----------x-----------------------------------------------------------------|
E|----------x-----------------------------------------------------------------|

 [Chorus]
e|------0-0-----------------0-0-----------1-0-0----------1-0-0------------0-0-|
B|-1h3----------1-1-1--1h3---------0-0-0----------------1------------1h3------|
G|--------------2-2-2--------------0-0-0------------2--2----------2-----------|
D|--------------2-2-2--------------2-2-2------------3-------------3-----------|
A|-x---------0-------------------3--------------------------------------------|
E|-x---------------------------------------------0--1----------0--1-----------|

e|--------------------------0-0--------------------1-0-0---------------(1)-0--|
B|----1------1-----1----1h3---------0-----0---0------------------------(0)----|
G|----2------2-----2----------------0-----0---0-------------2----------(0)----|
D|----2------2---2---2--------------2-----2-2---2-----------3----3---3--------|
A|--0-----x-------------x--------3-----x-----------x-----------x--------x-----|
E|--------x-------------x--------------x-----------x------0-1--x---1----x-----|

e|-0-------------------------------------------------------------------------|
B|---------------------------------------------------------------------------|
G|------2~-------------------------------------------------------------------|
D|------3~-------------------------------------------------------------------|
A|---------------------------------------------------------------------------|
E|---0--1~-------------------------------------------------------------------|

************************************

| x   Dead note
| (n) Ghost note
| h   Hammer-on
| p   Pull-off
| /   Slide up
| \   Slide down
| ~   Vibrato

************************************

            
            
Suggest correction
Creating personal tab
Creating personal tab
You can edit any tab online and save it as your Personal.

You can edit, replace or remove any tab part or add personal notes – all changes will be seen only by you.

Personal tabs can be accessed anytime from any device, even offline.
Learn more »
comments
print report bad tab
guest
You may want to rate the tab now too:
select rating
Wanna post a correction for this tab? Suggest correction