Oops, an error
Loading. Please wait.

Tears Tab

version 1
version 1

Whole song

Interactive

29,602 views 48 this week
no commentswrite comment
1 2 3 4 5
excellent!
x 9
add to favorites
launch autoscroll
font size
0
reset
how to read this tab
guitar tuner
Autoscroll
slow
fast
+/-
esc
set tempo
stop
Help us to improve Ultimate-Guitar.com Take our survey!
×
TEARS - by Django Reinhardt/Stephane Grappelli


Fingerstyle arrangement for this beatiful composition. The original song was
played in the sacle of C minor but for an easier fingerstyle technique it
is transposed to A minor. Most is pretty simple, part B needs some practice.

Enjoy!


Part A

e ---------------------3-1----1-0-|---------------------3-1-----1-0-|
B -----1-------1-------3------0---|-----1-------1-------3-------0---|
G -----2-------2----2-------1-----|-----2-------2----2-------1------|
D ---2---2---2---2----------------|---2---2---2---2-----------------|
A -0-------3-------2--------------|-0-------3-------2---------------|
E -------------------------4------|-------------------------4-------|


e ---------------------------|-----------------------------------|
B -5-5-5-5-5---6---3-3-3-----|----3-3-3-3-3---5---1-1-1----------|
G -3-3-3-3-3---3---5-5-5-----|----4-4-4-4-4---4---2-2-2----------|
D -5-5-5-5-5---5---3-3-3-----|----3-3-3-3-3---3---2-2-2----------|
A -4---4---4--4----5-----5---|--------------------3-----3--------|
E -------------------5-----5-|----4---4---4--4------3-----3------|

                                                    [end 1st time]
e ---------------------------|--8-7----8-7-----4-5---------------|
B -1-1-1-1-1---3---0---0-0---|--6-5----6-5-----3-5---------------|
G -2-2-2-2-2---2---2---2-2---|--8-7----8-7-----4-5---------------|
D -1-1-1-1-1---1---1---1-0---|--7-6----7-6-----3-4-----2-0-------|
A ---------------------------|--0--------0-------0---------3-2---|
E -2---2---2--2----1-1-1--1--|-----0-------0-------0-------------|

[REPEAT Part A; end 2nd time play (*) below]


Part B
                                                    [---(*)-------|
e ------------------------------|---------------------------------|
B ---------5--4-3---------------|---------5--4-----------0-3------|
G -6-6-5-6-4--3-2-----3--4--5---|-6-6-5-6-4--3-2-------1----------|
D -7-7-6-7-6--5-4-----5--6--6---|-7-7-6-7-6--5-4-----2------------|
A -0-------4--3-2-----4--5--5---|-0-------4--3-2-----------2------|
E -----0-----------------0----0-|-----0-----------0----------0----|

                   CV           [--- end 1st time ----------------|
e -9-7-5----------------------|-----------9-9-------------8-8-----|
B --------9-7---5---7---7-----|--7-7----7---------6-6---6---------|
G -9-7-6----6---6---6---6-----|--8-8-10-----------7-7-9-----------|
D ----------5---5---7---7-----|--7-7--------------6-6-------------|
A -0--------0-------5-----5---|--9--------9-------8-------8-------|
E -------0------0-----5-----5-|------7--------7-------6-------6---|

[Repeat part B]

     [--- end 2nd time ---------------|
e ----1-1---1-0---0-------------------|
B ----1---3---0---0---1---------------|
G ----2-------1---1---2---------------|
D ----3-------2-----------------------|
A ----3-------2-------0---3---2-------|
E --------3-----0----------------4----|
[Play part A again with 1st ending]

End section

e -----------------------8-8-8-8-8-|-----------------------8-8-8-8-8-|
B -----1-------1---3-----6-6-6-6-8-|-----1-------1---3-----6-6-6-6-8-|
G -----2-------2---3-----8-8-8-8-8-|-----2-------2---3-----8-8-8-8-8-|
D ---2---2---2---2-3-----7-7-7-7-7-|---2---2---2---2-3-----7-7-7-7-7-|
A -0-------3-------1---------------|-0-------3-------1---------------|
E ---------------------------------|---------------------------------|

                                      [pause]
e -----------------------|----------------|--5--||
B -----1-------1---3-----|-3-4-5-6-7-8----|--5--||
G -----2-------2---3-----|-2-3-4-5-6-7----|--5--||
D ---2---2---2---2-3-----|-3-4-5-6-7-8----|--4--||
A -0-------3-------1-----|-2-3-4-5-6-7----|--0--||
E -----------------------|----------------|-----||

Transcribed by: Ziyon Amram, Feb 2009
ziyonamr@netvision.net.il
Suggest correction
What's this?
You can suggest a correction to this tab. Community and Mods will review your correction and vote to approve or reject it.
comments
print report bad tab
guest
You may want to rate the tab now too:
select rating
Please do not post tabs as comments. Select "correction" instead!