Oops, an error
Loading. Please wait.

Besatt Av Maane Og Natt Tab

13 views 1 this week
no commentswrite comment
1 2 3 4 5
3 more votes to show rating
add to favorites
launch autoscroll
font size
0
reset
how to read this tab
guitar tuner
Autoscroll
slow
fast
+/-
esc
set tempo
stop
Help us to improve Ultimate-Guitar.com Take our survey!
×
Author
Song: Besatt av Maane Og Natt
Artist: Djevel
Album: Besatt av Maane Og Natt (2013)


Riff 1
e|-------------------------------------------------------------*---------------------------------------------|
B|-------------------------------------------------------------*---------------------------------------------|
G|------------4444----------4444-----------4444-6666-4444------*-----------4444-----------4444-----------5555|
D|------4444------------4444----------4444----------------5555-*------5555-----------5555-----------7777-----|
A|-2222------------2222----------2222--------------------------*-7777-----------7777-----------0000----------|
E|-------------------------------------------------------------*---------------------------------------------|

e|-----------------|     
B|------------3333-|     
G|-------4444------|     
D|--4444-----------| 
A|-----------------|     
E|-----------------|     

 Riff 1 end
e|*------------------------------------------------------------|
B|*------------------------------------------------------------|
G|*-----------4444----------4444-----------5555-----------4444-|
D|*------5555-----------5555----------7777-----------5555------|
A|*-7777-----------7777----------0000-----------7777-----------|
E|*------------------------------------------------------------|

 Riff 2
e|-------------------------------------------------------------------------------------------|
B|-------------------------------------------------------------------------------------------|
G|-------------------------------------------5--4--2---2-2-2-2-2--4--5-----------------------|
D|-------------------------------------------3--2--0---0-0-0-0-0--2--3-----------------------| 
A|-2---2-2-2-2--2---2-2-2-2--2---2-2-2-2--2-----------------------------5---5-5-5-5-5--4--5--|
E|-0---0-0-0-0--0---0-0-0-0--0---0-0-0-0--0-----------------------------3---3-3-3-3-3--2--3--|

 Riff 3
e|------------------------------------------------------------------------------------------|
B|------------------------------------------------------------------------------------------|
G|----------------------------------------------2---2-2-2-2--2--4--5-5-4-4-4-4--4---4-4-4-4-|
D|----------------------------------------------0---0-0-0-0--0--2--3-3-2-2-2-2--2---2-2-2-2-|
A|-2---2-2-2-2--2--4--5-5-4-4-4-4--4---4-4-4-4----------------------------------------------|
E|-0---0-0-0-0--0--2--3-3-2-2-2-2--2---2-2-2-2----------------------------------------------|

 Riff 4
e|--------------------------------------------------|
B|--------------------------------------------------|
G|--------------------------------------------------|
D|-4----4--4-4-2-2-5-3----4----4--4-4-------------2-|
A|-2----2------------1----2----2--2-2-5-5-4-4-5-5-0-|
E|------------------------------------3-3-2-2-3-3---|

 Riff 5 tremolo picking      Riff 5 end
e|-------------------|       |------------------------|
B|-------------------|       |------------------------|
G|-------------------|       |------------------------|
D|-4----5----5---7-4-|       |-4----5----5---7-4--5-7-|
A|-2----2----7---9-5-|       |-2----2----7---9-5--7-9-|
E|-------------------|       |------------------------|

 Riff 6
e|----------------------------------------------------------------------------------------------------------
B|----------------------------------------------------------------------------------------------------------
G|--------------------------2222---------------------2222---------------------------------------------------
D|------4444-5555-4444-5555------5555-4444-2222-5555------5555-4444------2222-----------4444-5555-4444-5555-
A|-2222-------------------------------------------------------------5555------5555-2222---------------------
E|----------------------------------------------------------------------------------------------------------

e|--------------------------------------------------------|
B|--------------------------------------------------------|
G|-2222-----------7777-5555-4444-5555-2222----------------|
D|------5555-4444--------------------------5555-4444-5555-|
A|--------------------------------------------------------|
E|--------------------------------------------------------|

 Riff 7
e|--------------------------------------------------------------------------------|
B|--------------------------------------------------------------------------------|
G|--------------------------22------------------------------------22-----------22-|
D|----------44444444-555555-----44444444----------44444444-555555-----44444-55----|
A|-22222222------------------------------22222222---------------------------------|
E|--------------------------------------------------------------------------------|

 End
e|---------------------------------------------------------------------------------------|
B|---------------------------------------------------------------------------------------|
G|--------------------------2222---------------------2222--------------------------------|
D|------4444-5555-4444-5555------5555-4444-2222-5555------5555-4444------2222------------|
A|-2222-------------------------------------------------------------5555------5555-2-----|
E|---------------------------------------------------------------------------------------|

Riff 1 x6
Riff 2 x4
Riff 1 x4
Riff 2 x4
Riff 3 x4
Riff 4 x6
Riff 5 x4
Riff 6 x3   (Riff 5 keeps playing in the background)
Riff 7 x2   (Riff 5 keeps playing in the background)
Riff 6 x2   (Riff 5 keeps playing in the background)
End x1      (Riff 5 keeps playing in the background)
Suggest correction
Give kudos to tab author, rate the tab!
1 2 3 4 5
comments
print report bad tab
guest
You may want to rate the tab now too:
select rating
Wanna post a correction for this tab? Suggest correction