Oops, an error
Loading. Please wait.

Un Vicio Caro Es El Amor tab

by DLD
166 views 3 this week
no commentswrite comment
1 2 3 4 5
3 more votes to show rating
add to favorites
×
Save as Personal and add changes to this tab that will be seen only by you. Learn more ›
×
You can save this tab as Personal to edit and correct it or add notes. All changes will be seen only by you. Learn more »
launch autoscroll
font size
0
reset
how to read this tab
guitar tuner
edit
Autoscroll
slow
fast
+/-
esc
set tempo
stop
Author
Bienvenidos checa la demostración y el tutorial en…
“Somos Posers” Facebook & Youtube, ¡Comenzamos!


[Intro]

C  Am  E  F   (x2)


e||---------------|----------------|---------------|-----------------------|
B||--10br10-8-10--|--8-10br10-8----|---------------|-----------------------|
G||---------------|-------------9--|----9-9h10-10--|--10h12--10--10h12--9--|
D||---------------|----------------|--12-----------|-----------------------|
A||---------------|----------------|---------------|-----------------------|
E||---------------|----------------|---------------|-----------------------|


[Verse 1]

C            Am               E       F                                           
El humo es espeso, no me deja ver, no creo que ella vaya a volver
C       Am                   E          F                                           
Noches eternas, bañadas de alcohol y es todo tan incierto hasta hoy
C           Am                E      F                                           
Estoy en el fondo, no puedo salir, estoy tan condenado a morir
C             Am               E      F                       
La vida es el precio para mantener el vicio que me tiene hasta 
G
hoy…sin saber a donde voy


[Chorus]

D      F#                 Bm             G
Como vivir tan lejos de ti, solo adórame, solo adórame
D             F#               Bm                 G
Que importa morir si ya estuve aquí, solo adórame, solo adórame
  A           G             A              
Y así poder saber a donde a ir, solo adórame


[Intro]

C  Am  E  F   (x2)


[Verse]

C              Am            E      F                                                
El tiempo es espeso, me deja ver no creo que ella pueda entender
C           Am               E        F                                           
Que vivo despierto, días sin sol y es todo tan incierto hasta hoy
C           Am                E     F                                           
Estoy en el fondo, no puedo salir estoy tan condenado a sufrir
C             Am                     E     F               
La vida es el precio que habrá que pagar para poder tenerte 
G          G
aquí…sin saber a donde ir


[Chorus]

D      F#                 Bm             G
Como vivir tan lejos de ti, solo adórame, solo adórame
D             F#               Bm                 G         
Que importa morir si ya estuve aquí, solo adórame, solo adórame
 A      Bm         A                Bm     A
Podré saber quien eres, puedo hacer sacrificios
         Bm           G            A     FIG.
Puedo no ser el mismo pero hoy, un vicio caro es el amor


FIG.

e||--------------------|--------------------|
B||--------------------|--------------------|
G||------7-9--7-7-7-7--|------7-9--6-6-6-6--|
D||--7-9---------------|--7-9---------------|
A||--------------------|--------------------|
E||--------------------|--------------------|


e|-------------------------------------------------|
B|-------------------------------------------------|
G|------7-9-9b-(11)-(11)-(11)-(11)-9--7-9-7-7-7-7--|
D|--7-9--------------------------------------------|
A|-------------------------------------------------|
E|-------------------------------------------------|


[Chorus]

D      F#                 Bm             G
Como vivir tan lejos de ti, solo adórame, solo adórame
D             F#               Bm                 G         
Que importa morir si ya estuve aquí, solo adórame, solo adórame
D             F#            Bm        G D
Solo adórame, solo adórame, solo adórame


e||----------------|
B||----------------|
G||-------7--9--7--|
D||--7--9----------|
A||----------------|
E||----------------|

Eso es todo el tema, si tienes dudas checa los tutoriales 
y demostraciones de “Somos Posers” en Youtube.



************************************

| (n)  Ghost note
| h    Hammer-on
| b    Bend
| br   Bend release   

************************************
Suggest correction
Creating personal tab
Creating personal tab
You can edit any tab online and save it as your Personal.

You can edit, replace or remove any tab part or add personal notes – all changes will be seen only by you.

Personal tabs can be accessed anytime from any device, even offline.
Learn more »
Give kudos to tab author, rate the tab!
1 2 3 4 5
comments
print report bad tab
guest
You may want to rate the tab now too:
select rating
Wanna post a correction for this tab? Suggest correction