Oops, an error
Loading. Please wait.

Merindukanmu Tab

version 2
version 2

Whole song

Interactive

3,463 views 6 this week
no commentswrite comment
1 2 3 4 5
please rate
add to favorites
launch autoscroll
font size
0
reset
how to read this tab
guitar tuner
Tab Pro tools
  • play this tab
  • loop segment
  • change instrument
  • show fretboard
  • metronome
Autoscroll
slow
fast
+/-
esc
set tempo
stop
Contributor
Difficulty
novice
-------------------------------------------------------------------------------
                             Merindukanmu - d'Masiv
-------------------------------------------------------------------------------
Tabbed by: -ScT-
Email: kuai_ku@hotmail.com

I love this song very much,so I want to share it for you all
I tabbed it, with my own style...
:)
Gb


Intro : Guitar solo
     C               Cmaj7           F
e|--------------------------------------------------------------------------|
B|-------1-----1---------0-----0---------1-----1---------1-----1------------|
G|---------------0---------------0-----2-----2---2-----2-----2---2----------|
D|-----2-----2-----2---2-----2-----2-3-----3-------3-3-----3-------0--------|
A|---3-----3---------3-----3------------------------------------------------|
E|--------------------------------------------------------------------------|
PM   *     *         *     *

Verse 1
     C               Cmaj7           F
e|--------------------------------------------------------------------------|
B|-------1-----1---------0-----0---------1-----1---------1-----1------------|
G|---------------0---------------0-----2-----2---2-----2-----2---2----------|
D|-----2-----2-----2---2-----2-----2-3-----3-------3-3-----3-------0--------|
A|---3-----3---------3-----3------------------------------------------------|
E|--------------------------------------------------------------------------|
PM   *     *         *     *
     C               Cmaj7           F
e|-------------------------------------------------------------0------------|
B|-------1-----1---------0-----0---------1-----1---------1-------1---1------|
G|---------------0---------------0-----2-----2---2-----2-----2-----2--------|
D|-----2-----2-----2---2-----2-----2-3-----3-------3-3-----3----------------|
A|---3-----3---------3-----3------------------------------------------------|
E|--------------------------------------------------------------------------|
PM   *     *         *     *
     Am              G               F
e|--------------------------------------------------------------------------|
B|-------1-----1---------0-----0---------1-----1---------1-----1------------|
G|---------------2---------------0-----2-----2---2-----2-----2---2----------|
D|-----2-----2-----0---------------0-3-----3-------3-3-----3-------3--------|
A|---0-----0-----------2-----2----------------------------------------------|
E|-------------------3-----3------------------------------------------------|

     Am              G               F               G
e|---------------------------------------------0---------------3------------|
B|-------1-----1---------0-----0---------1-------1-------0-------0----------|
G|---------------2---------------0-----2-----2-----2---------------0--------|
D|-----2-----2-----0---------------0-3-----3--------------------------------|
A|---0-----0-----------2-----2-------------------------2-----2--------------|
E|-------------------3-----3-------------------------3-----3----------------|


Chorus 1
    F                Em               Dm       G       C        C7
e|--1-x1--x--1-x1-x1-0-x0--x--0-x0-x0-1-x1--x--3-x3-x3-0-x0--x--0-x0-------|
B|--1-x1--x--1-x1-x1-0-x0--x--0-x0-x0-3-x3--x--3-x3-x3-1-x1--x--1-x1-------|
G|--2-x2--x--2-x2-x2-0-x0--x--0-x0-x0-2-x2--x--0-x0-x0-0-x0--x--3-x3-------|
D|--3-x3--x--3-x3-x3-2-x2--x--2-x2-x2-0-x0--x--0-x0-x0-2-x2--x--2-x2-------|
A|--3-x3--x--3-x3-x3-2-x2--x--2-x2-x2---x---x--2-x2-x2-3-x3--x--3-x3-------|
E|--1-x1--x--1-x1-x1-0-x0--x--0-x0-x0---x---x--3-x3-x3---------------------|

    F                Em       A       Dm       G
e|--1-x1--x--1-x1-x1-0-x0--x--0-x0-x0-1-x1--x--3---------------------------|
B|--1-x1--x--1-x1-x1-0-x0--x--2-x2-x0-3-x3--x--3---------------------------|
G|--2-x2--x--2-x2-x2-0-x0--x--2-x2-x0-2-x2--x--0---------------------------|
D|--3-x3--x--3-x3-x3-2-x2--x--2-x2-x2-0-x0--x--0---------------------------|
A|--3-x3--x--3-x3-x3-2-x2--x--0-x0-x2---x---x--2---------------------------|
E|--1-x1--x--1-x1-x1-0-x0--x----x--x0---x---x--3---------------------------|


Pre-verse
       C                     
e|---------------------------3-0--0|
B|-----1-----1---------3----------1|
G|-------------0------------------0|
D|---2-----2-----2---2-----2------2|
A|-3-----3---------3-----3--------3|
E|---------------------------------|


Verse 2
     C               Cmaj7           F
e|--------------------------------------------------------------------------|
B|-------1-----1---------0-----0---------1-----1---------1-----1------------|
G|---------------0---------------0-----2-----2---2-----2-----2---2----------|
D|-----2-----2-----2---2-----2-----2-3-----3-------3-3-----3-------0--------|
A|---3-----3---------3-----3------------------------------------------------|
E|--------------------------------------------------------------------------|
PM   *     *         *     *
     C               Cmaj7           F
e|-------------------------------------------------------------0------------|
B|-------1-----1---------0-----0---------1-----1---------1-------1---1------|
G|---------------0---------------0-----2-----2---2-----2-----2-----2--------|
D|-----2-----2-----2---2-----2-----2-3-----3-------3-3-----3----------------|
A|---3-----3---------3-----3------------------------------------------------|
E|--------------------------------------------------------------------------|
PM   *     *         *     *
     Am              G               F
e|--------------------------------------------------------------------------|
B|-------1-----1---------0-----0---------1-----1---------1-----1------------|
G|---------------2---------------0-----2-----2---2-----2-----2---2----------|
D|-----2-----2-----0---------------0-3-----3-------3-3-----3-------3--------|
A|---0-----0-----------2-----2----------------------------------------------|
E|-------------------3-----3------------------------------------------------|

     Am              G               F               G
e|---------------------------------------------0---------------3------------|
B|-------1-----1---------0-----0---------1-------1-------0-------0----------|
G|---------------2---------------0-----2-----2-----2---------------0--------|
D|-----2-----2-----0---------------0-3-----3--------------------------------|
A|---0-----0-----------2-----2-------------------------2-----2--------------|
E|-------------------3-----3-------------------------3-----3----------------|

Chorus 2
F-Em-Dm-G-C-C7
F-Em-A-Dm-G


Solo Guitar By Kiki
e|---------------12--13p-----------------------------------------15-12~---------------------15-12~|
B|12/13----13-15--------15--13-13--15\12-12----12-13-15p--13-15---------13-12-13-15-13-12---------|
G|------12----------------------------------12----------------------------------------------------|
D|------------------------------------------------------------------------------------------------|
A|------------------------------------------------------------------------------------------------|
E|------------------------------------------------------------------------------------------------|

Chorus

Solo 2 (Outro)
e|----------------12---------|
B|-12/13----13-15-----15-----|
G|-------12--------------12--|
D|---------------------------|
A|---------------------------|
E|---------------------------|

Outro : Dm Em F G 
        C


This song is like my life...
enjoy this
:)


************************************

| /   slide up
| \   slide down
| h   hammer-on
| p   pull-off
| ~   vibrato
| +   harmonic
| x   Mute note
| b   Bend
| pb  Pre-bend
| br  Bend release
| pbr Pre-bend release
| brb Bend release bend
| PM  Palm Mute = *
************************************
comments
We did not receive enough feedback on this tab! Please rate:
print report bad tab
1 2 3 4 5
I want to post or [tab]
guest
You may want to rate the tab now too:
select rating
Please do not post tabs as comments. Select "correction" instead!