Oops, an error
Loading. Please wait.

Waltz 2 From Suite For Variety Orchestra tab

18,149 views 78 this week
1 commentread comment
1 2 3 4 5
x 4
add to favorites
×
Save as Personal and add changes to this tab that will be seen only by you. Learn more ›
×
You can save this tab as Personal to edit and correct it or add notes. All changes will be seen only by you. Learn more »
launch autoscroll
font size
0
reset
how to read this tab
guitar tuner
edit
Autoscroll
slow
fast
+/-
esc
set tempo
stop
(OK, so this is supposed to be played with your guitar tuned down one whole step (so , 
DGCFAD), in the key of Eb minor,
but it also sounds good when tuned to the standard EADGAE (in the key of F minor).
Some positions are a bit hard to reach, you may want to forgot the bassline at some point.
This is the beggining of this waltz, written for only one guitar.
If you want to play with a friend, one can play the high notes,
while the other one plays the chord corresponding to the bass note in a (bass- high - 
high) fashion.
For example, for the first bar, you can play C, then G-C-Eb on strings 1,2,3 (so, a Cm chord,
which is the same position as a Dm chord on a standard guitar).  This song is in 3/4.
So, here it goes!)
                                       H.              H        Q     
D|-------|-------|-------|-------|---5------------|--1--------0----|
A|-------|-------|-------|-------|----------------|----------------|
F|-------|-------|-------|-------|*---------------|----------------|
C|-------|-------|-------|-------|*--0------------|----------------|
G|-------|-------|-------|-------|----------------|--0-------------|
D|-------|-------|-------|-------|----------------|----------------|

    H.              Q    Q    Q       Q    Q    Q       H        Q     
D|---------------|------------0----|--1---------1----|--5--------6----|
A|--3------------|-------3---------|-------3---------|----------------|
F|---------------|-----------------|-----------------|----------------|
C|--0------------|-----------------|--0--------------|----------------|
G|---------------|--0--------------|-----------------|--0-------------|
D|---------------|-----------------|-----------------|----------------|

    H.              H.              H.              H        Q     
D|--5------------|--3------------|--3------------|--0-------------|
A|---------------|---------------|---------------|-----------3----|
F|---------------|---------------|---------------|----------------|
C|--2------------|---------------|--2------------|----------------|
G|---------------|--0------------|---------------|--0-------------|
D|---------------|---------------|---------------|----------------|

    H.              Q    Q    Q       Q    Q    Q       Q    Q    Q     
D|---------------|-----------------|--0---------0----|--3----5----6----|
A|--2------------|--L---------2----|-------2---------|-----------------|
F|---------------|-------2---------|-----------------|-----------------|
C|--2------------|-----------------|--2--------------|-----------------|
G|---------------|--0--------------|-----------------|--0--------------|
D|---------------|-----------------|-----------------|-----------------|

    H.              H.              H.              H        Q     
D|--4------------|--5------------|--1------------|--0-------------|
A|---------------|---------------|--3------------|-----------3----|
F|---------------|---------------|--2------------|--2-------------|
C|--0------------|---------------|--0------------|--3-------------|
G|---------------|--0------------|---------------|--0-------------|
D|---------------|---------------|---------------|----------------|

    H        Q       H.              H.              H        Q     
D|----------------|---------------|--0------------|----------------|
A|--1-------------|---------------|--1------------|--3--------1----|
F|-----------3----|--0------------|--0------------|--3-------------|
C|----------------|--0------------|--2------------|--3-------------|
G|--0-------------|---------------|--3------------|--3-------------|
D|----------------|---------------|---------------|----------------|

    H.              Q    Q    Q       Q    E  E  E  E     Q    E  E  E  E   
D|---------------|-------1----3----|--5----5--3--5--6--|--3----3--1--3--5--|
A|--1------------|------------5----|--6----------------|--5----------------|
F|--2------------|-----------------|--7----------------|-------------------|
C|--3------------|-----------------|-------------------|-------------------|
G|---------------|-----------------|--0----------------|--1----------------|
D|---------------|-----------------|-------------------|-------------------|

    Q    Q    Q       Q    Q    Q       Q    E  E  E  E     Q    E  E  E  E   
D|--1---------5----|-------1----3----|--5----5--3--5--6--|--3----3--1--3--5--|
A|--3---------6----|-------3----5----|--6----------------|--5----------------|
F|------------7----|-----------------|--7----------------|-------------------|
C|-----------------|-----------------|-------------------|-------------------|
G|--0--------------|--1--------------|--0----------------|--1----------------|
D|-----------------|-----------------|-------------------|-------------------|

    Q    Q    Q       Q    Q    Q       Q    E  E  E  E     Q    E  E  E  E   
D|--1---------5----|------------0----|--1----1--0--1--3--|--0----0-----0--1--|
A|--3---------6----|-------3---------|--3----------------|--2-------3--------|
F|------------7----|------------0----|--2----------------|--2----------------|
C|-----------------|-------3---------|--0----------------|--2----------------|
G|--0--------------|--1--------------|--0----------------|--0----------------|
D|-----------------|-----------------|-------------------|-------------------|

    H.              H.              H.              H.              
D|---------------|---------------|---------------|----------------|
A|--3------------|--L------------|--L------------|--L-------------|
F|---------------|---------------|---------------|---------------*|
C|--0------------|---------------|--0------------|---------------*|
G|---------------|--0------------|---------------|--0-------------|
D|---------------|---------------|---------------|----------------|

    Q    Q    Q       Q    Q    Q       H.              H.            
D|-----------------|-----------------|--1------------|--1------------|
A|--3--------------|--L---------1----|--1------------|--1------------|
F|--2--------------|--L---------3----|--2------------|--2------------|
C|--3--------------|--L---------2----|--3------------|---------------|
G|-------0---------|-----------------|---------------|--3------------|
D|------------1----|-----------------|---------------|---------------|

    Q    Q    Q       Q    Q    Q       H.              H.            
D|--1----0---------|-----------------|--0------------|--0------------|
A|-------1----3----|--1---------1----|--1------------|--1------------|
F|--2---------3----|--2----2----2----|--0------------|--0------------|
C|--3--------------|-------3---------|---------------|---------------|
G|-----------------|--3--------------|---------------|--3------------|
D|-----------------|-----------------|---------------|---------------|

    Q    Q    Q       Q    Q    Q       H.              H.            
D|-----------------|-----------------|---------------|---------------|
A|--3----1---------|--3--------------|--3------------|--1------------|
F|--3----2----2----|-------0----2----|--2------------|--2------------|
C|--3---------3----|--3----2----3----|--4------------|--4------------|
G|-----------------|--3--------------|--5------------|--5------------|
D|-----------------|-----------------|---------------|---------------|

    Q    Q    Q       Q    Q    Q       H        Q       H        Q     
D|-----------------|-----------------|----------------|----------------|
A|--1--------------|-----------------|-----------1----|-----------1----|
F|--2----3----2----|--0---------0----|--2-------------|--0-------------|
C|-------5----4----|-------3---------|--3-------------|--2-------------|
G|-------0----5----|--1--------------|----------------|--3-------------|
D|--0----3---------|-----------------|--1-------------|----------------|

    H        Q       H        Q       H        Q       H        Q     
D|----------------|--1--------3----|--5-------------|--5-------------|
A|-----------1----|-----------1----|--6-------------|--6-------------|
F|--2-------------|--2-------------|--5-------------|--5-------------|
C|--3-------------|----------------|----------------|----------------|
G|----------------|--3-------------|----------------|--3-------------|
D|--1-------------|----------------|--1-------------|----------------|

    Q    Q    Q       Q    Q    Q       H        Q       H        Q     
D|--5----3----1----|--0---------0----|--3-------------|--3-------------|
A|--6----5----3----|--1----1----1----|--5-------------|--5-------------|
F|--5--------------|-------2---------|--5-------------|--5-------------|
C|-----------------|-----------------|----------------|----------------|
G|-----------------|--3--------------|----------------|--3-------------|
D|--1--------------|-----------------|--3-------------|----------------|

    Q    Q    Q       Q    Q    Q       H.              H.            
D|--3----1----0----|-----------------|--1------------|--1------------|
A|--5----3----1----|--3---------1----|---------------|---------------|
F|-----------------|--3----2----2----|--2------------|--2------------|
C|--3--------------|-------3---------|--3------------|--1------------|
G|-----------------|--3--------------|---------------|---------------|
D|-----------------|-----------------|---------------|---------------|

    H.              Q    Q    Q       H        Q       Q    Q    Q     
D|--1------------|--3----1----3----|--5--------1----|------------0----|
A|---------------|-----------------|----------------|--1----3---------|
F|--3------------|--3----2----3----|--5--------2----|------------0----|
C|--0------------|-----------------|----------------|--2----3---------|
G|---------------|--4--------------|--3-------------|--3--------------|
D|---------------|-----------------|----------------|-----------------|

    Q    Q    Q        Q     Q     Q          H        Q       Q    Q    Q     
D|--1----3----1----|--------------------|-------------1----|--L----0----1----|
A|-----------------|--16----15----14----|---15--------3----|--L----2----3----|
F|-----------------|--------------------|*--15-------------|-----------------|
C|--3--------------|--------------------|*-----------------|-----------------|
G|--0--------------|--18----17----16----|------------------|-----------------|
D|--1--------------|--------------------|------------------|-----------------|

     H        Q       Q     Q     Q        H         Q        H         Q     
D|------------1----|--L----11----10----|--10---------8----|---7---------8----|
A|--15--------3----|--L----------------|--10--------10----|--10--------10----|
F|--15-------------|-------12----10----|--10--------10----|--10--------10----|
C|-----------------|-------------------|------------------|------------------|
G|-----------------|-------------------|------------------|------------------|
D|-----------------|-------------------|------------------|------------------|

     H         Q        Q     Q     Q        H        Q       Q    Q    Q     
D|--15--------13----|--11----10-----9----|------------1----|--L----0----1----|
A|--13--------13----|--10----------10----|--15--------3----|--L----2----3----|
F|--14--------14----|--12----10-----9----|--15-------------|-----------------|
C|------------------|--------------------|-----------------|-----------------|
G|------------------|--------------------|-----------------|-----------------|
D|------------------|--------------------|-----------------|-----------------|

     H        Q       Q    Q    Q       H         Q        H         Q     
D|------------1----|--L----3----5----|--6---------8----|--10--------10----|
A|--15--------3----|--L----4----6----|--8--------10----|--11--------11----|
F|--15-------------|-----------------|-----------------|------------------|
C|-----------------|-----------------|-----------------|------------------|
G|-----------------|-----------------|-----------------|------------------|
D|-----------------|-----------------|-----------------|------------------|

     Q     Q     Q        H         Q          E   E   E   E   E   E   
D|--12----10----12----|--13--------11-----|--13--15--13--12--13--15--|
A|--13----11----13----|-------------------|--------------------------|
F|--------------------|--14--------------*|--14----------------------|
C|--------------------|------------------*|--------------------------|
G|--------------------|-------------------|--------------------------|
D|--------------------|-------------------|--------------------------|

     H         Q                                         H.            
D|--17--------12----|-------|-------|-------|-------|---5------------|
A|--16--------------|-------|-------|-------|-------|----------------|
F|--18--------------|-------|-------|-------|-------|*---------------|
C|------------------|-------|-------|-------|-------|*--0------------|
G|------------------|-------|-------|-------|-------|----------------|
D|------------------|-------|-------|-------|-------|----------------|

    H        Q       H.              Q    Q    Q       Q    Q    Q     
D|--1--------0----|---------------|------------0----|--1---------1----|
A|----------------|--3------------|-------3---------|-------3---------|
F|----------------|---------------|-----------------|-----------------|
C|----------------|--0------------|-----------------|--0--------------|
G|--0-------------|---------------|--0--------------|-----------------|
D|----------------|---------------|-----------------|-----------------|

    H        Q       H.              H.              H.            
D|--5--------6----|--5------------|--3------------|--3------------|
A|----------------|---------------|---------------|---------------|
F|----------------|---------------|---------------|---------------|
C|----------------|--2------------|---------------|--2------------|
G|--0-------------|---------------|--0------------|---------------|
D|----------------|---------------|---------------|---------------|

    H        Q       H.              Q    Q    Q       Q    Q    Q     
D|--0-------------|---------------|-----------------|--0---------0----|
A|-----------3----|--2------------|--L---------2----|-------2---------|
F|----------------|---------------|-------2---------|-----------------|
C|----------------|--2------------|-----------------|--2--------------|
G|--0-------------|---------------|--0--------------|-----------------|
D|----------------|---------------|-----------------|-----------------|

    Q    Q    Q       H.              H.              H.            
D|--3----5----6----|--4------------|--5------------|--1------------|
A|-----------------|---------------|---------------|--3------------|
F|-----------------|---------------|---------------|--2------------|
C|-----------------|--0------------|---------------|--0------------|
G|--0--------------|---------------|--0------------|---------------|
D|-----------------|---------------|---------------|---------------|

    H        Q       H        Q       H.              H.            
D|--0-------------|----------------|---------------|--0------------|
A|-----------3----|--1-------------|---------------|--1------------|
F|--2-------------|-----------3----|--0------------|--0------------|
C|--3-------------|----------------|--0------------|--2------------|
G|--0-------------|--0-------------|---------------|--3------------|
D|----------------|----------------|---------------|---------------|

    H        Q       H.              Q    Q    Q       Q    E  E  E  E   
D|----------------|---------------|-------1----3----|--5----5--3--5--6--|
A|--3--------1----|--1------------|------------5----|--6----------------|
F|--3-------------|--2------------|-----------------|--7----------------|
C|--3-------------|--3------------|-----------------|-------------------|
G|--3-------------|---------------|-----------------|--0----------------|
D|----------------|---------------|-----------------|-------------------|

    Q    E  E  E  E     Q    Q    Q       Q    Q    Q       Q    E  E  E  E   
D|--3----3--1--3--5--|--1---------5----|-------1----3----|--5----5--3--5--6--|
A|--5----------------|--3---------6----|-------3----5----|--6----------------|
F|-------------------|------------7----|-----------------|--7----------------|
C|-------------------|-----------------|-----------------|-------------------|
G|--1----------------|--0--------------|--1--------------|--0----------------|
D|-------------------|-----------------|-----------------|-------------------|

    Q    E  E  E  E     Q    Q    Q       Q    Q    Q       Q    E  E  E  E   
D|--3----3--1--3--5--|--1---------5----|------------0----|--1----1--0--1--3--|
A|--5----------------|--3---------6----|-------3---------|--3----------------|
F|-------------------|------------7----|------------0----|--2----------------|
C|-------------------|-----------------|-------3---------|--0----------------|
G|--1----------------|--0--------------|--1--------------|--0----------------|
D|-------------------|-----------------|-----------------|-------------------|

    Q    E  E  E  E     H.              H.              H.            
D|--0----0-----0--1--|---------------|--5------------|--5------------|
A|--2-------3--------|--3------------|--6------------|---------------|
F|--2----------------|---------------|--6------------|---------------|
C|--2----------------|---------------|--7------------|--0------------|
G|--0----------------|--0------------|---------------|---------------|
D|-------------------|---------------|---------------|---------------|

    H        Q       H.              Q    Q    Q       Q    Q    Q     
D|--1--------0----|---------------|------------0----|--1---------1----|
A|----------------|--3------------|-------3---------|-------3---------|
F|----------------|---------------|-----------------|-----------------|
C|----------------|--0------------|-----------------|--0--------------|
G|--0-------------|---------------|--0--------------|-----------------|
D|----------------|---------------|-----------------|-----------------|

    H        Q       H.              H.              H.            
D|--5--------6----|--5------------|--3------------|--3------------|
A|----------------|---------------|---------------|---------------|
F|----------------|---------------|---------------|---------------|
C|----------------|--2------------|---------------|--2------------|
G|--0-------------|---------------|--0------------|---------------|
D|----------------|---------------|---------------|---------------|

    H        Q       H.              Q    Q    Q       Q    Q    Q     
D|--0-------------|---------------|-----------------|--0---------0----|
A|-----------3----|--2------------|--L---------2----|-------2---------|
F|----------------|---------------|-------2---------|-----------------|
C|----------------|--2------------|-----------------|--2--------------|
G|--0-------------|---------------|--0--------------|-----------------|
D|----------------|---------------|-----------------|-----------------|

    Q    Q    Q       H.              H.              H.            
D|--3----5----6----|--4------------|--5------------|--1------------|
A|-----------------|---------------|---------------|--3------------|
F|-----------------|---------------|---------------|--2------------|
C|-----------------|--0------------|---------------|--0------------|
G|--0--------------|---------------|--0------------|---------------|
D|-----------------|---------------|---------------|---------------|

    H        Q       H        Q       H.              H.            
D|--0-------------|----------------|---------------|--0------------|
A|-----------3----|--1-------------|---------------|--1------------|
F|--2-------------|-----------3----|--0------------|--0------------|
C|--3-------------|----------------|--0------------|--2------------|
G|--0-------------|--0-------------|---------------|--3------------|
D|----------------|----------------|---------------|---------------|

    H        Q       H.              Q    Q    Q       Q    E  E  E  E   
D|----------------|---------------|-------1----3----|--5----5--3--5--6--|
A|--3--------1----|--1------------|------------5----|--6----------------|
F|--3-------------|--2------------|-----------------|--7----------------|
C|--3-------------|--3------------|-----------------|-------------------|
G|--3-------------|---------------|-----------------|--0----------------|
D|----------------|---------------|-----------------|-------------------|

    Q    E  E  E  E     Q    Q    Q       Q    Q    Q       Q    E  E  E  E   
D|--3----3--1--3--5--|--1---------5----|-------1----3----|--5----5--3--5--6--|
A|--5----------------|--3---------6----|-------3----5----|--6----------------|
F|-------------------|------------7----|-----------------|--7----------------|
C|-------------------|-----------------|-----------------|-------------------|
G|--1----------------|--0--------------|--1--------------|--0----------------|
D|-------------------|-----------------|-----------------|-------------------|

    Q    E  E  E  E     Q    Q    Q       Q    Q    Q       Q    E  E  E  E   
D|--3----3--1--3--5--|--1---------5----|------------0----|--1----1--0--1--3--|
A|--5----------------|--3---------6----|-------3---------|--3----------------|
F|-------------------|------------7----|------------0----|--2----------------|
C|-------------------|-----------------|-------3---------|--0----------------|
G|--1----------------|--0--------------|--1--------------|--0----------------|
D|-------------------|-----------------|-----------------|-------------------|

    Q    E  E  E  E     Q    Q     Q        Q    Q    Q      
D|--0----0-----0--1--|------------------|--10--------------|
A|--2-------3--------|--3---------10----|------------------|
F|--2----------------|--2---------12----|--10--------------|
C|--2----------------|--3---------11----|--12--------------|
G|--0----------------|------------------|------------------|
D|-------------------|------------------|------------------|

(For a second guitar, you can try this): 

  ^                 ^                 ^                 ^               
     Q    Q    Q       Q    Q    Q       Q    Q    Q       Q    Q    Q     
D|-------1----1----|-------1----1----|-------1----1----|-------1----1----|
A|-------3----3----|-------3----3----|-------3----3----|-------3----3----|
F|-------2----2----|-------2----2----|-------2----2----|-------2----2----|
C|--0--------------|-----------------|--0--------------|-----------------|
G|-----------------|--0--------------|-----------------|--0--------------|
D|-----------------|-----------------|-----------------|-----------------|

     ^                 ^                 ^                 ^               
     Q    Q    Q       Q    Q    Q       Q    Q    Q       Q    Q    Q     
D|--------1----1----|-------1----1----|-------1----1----|-------1----1----|
A|--------3----3----|-------3----3----|-------3----3----|-------3----3----|
F|*-------2----2----|-------2----2----|-------2----2----|-------2----2----|
C|*--0--------------|-----------------|--0--------------|-----------------|
G|------------------|--0--------------|-----------------|--0--------------|
D|------------------|-----------------|-----------------|-----------------|

    ^                 ^                 ^                 ^               
    Q    Q    Q       Q    Q    Q       Q    Q    Q       Q    Q    Q     
D|-------1----1----|-------1----1----|-----------------|-----------------|
A|-------3----3----|-------3----3----|-------3----3----|-------2----2----|
F|-------2----2----|-------2----2----|-------3----3----|-------2----2----|
C|--0--------------|-----------------|--2--------------|-----------------|
G|-----------------|--0--------------|-----------------|--0--------------|
D|-----------------|-----------------|-----------------|-----------------|

    ^                 ^                 ^                 ^               
    Q    Q    Q       Q    Q    Q       Q    Q    Q       Q    Q    Q     
D|-----------------|-----------------|-----------------|-----------------|
A|-------3----3----|-------3----3----|-----------------|-----------------|
F|-------3----3----|-------3----3----|-------0----0----|-------0----0----|
C|--2--------------|-----------------|-------7----7----|-------2----2----|
G|-----------------|--0--------------|--7--------------|--0--------------|
D|-----------------|-----------------|-----------------|-----------------|

    ^                 ^                 ^                 ^               
    Q    Q    Q       Q    Q    Q       Q    Q    Q       Q    Q    Q     
D|-----------------|-----------------|-------1----1----|-------1----1----|
A|-----------------|-----------------|-------3----3----|-------3----3----|
F|-------0----0----|-------0----0----|-------2----2----|-------2----2----|
C|-------7----7----|-------2----2----|--0--------------|-----------------|
G|--7--------------|--0--------------|-----------------|--0--------------|
D|-----------------|-----------------|-----------------|-----------------|

    ^                 ^                 ^                 ^               
    Q    Q    Q       Q    Q    Q       Q    Q    Q       Q    Q    Q     
D|-------1----1----|-------1----1----|-----------------|-----------------|
A|-------3----3----|-------3----3----|-------3----3----|-------3----3----|
F|-------2----2----|-------2----2----|-------3----3----|-------3----3----|
C|--0--------------|-----------------|--5--------------|--0--------------|
G|-----------------|--0--------------|-----------------|-----------------|
D|-----------------|-----------------|-----------------|-----------------|

    ^                 ^                 ^                                 
    Q    Q    Q       Q    Q    Q       Q    Q    Q       Q    Q    Q     
D|-----------------|-----------------|-----------------|-----------------|
A|-----------------|-----------------|-------1----1----|--3--------------|
F|-------3----3----|-------3----3----|-------2----2----|--3--------------|
C|-------5----5----|-------5----5----|--3--------------|-----------------|
G|--0--------------|--0--------------|-----------------|-----------------|
D|-----------------|-----------------|-----------------|-----------------|

    H        Q       H        Q       H        Q       H        Q     
D|----------------|----------------|----------------|----------------|
A|----------------|----------------|----------------|----------------|
F|--2-------------|--3-------------|--2-------------|--3-------------|
C|----------------|----------------|----------------|----------------|
G|--0-------------|--1-------------|--0-------------|--1-------------|
D|----------------|----------------|----------------|----------------|

    H        Q       H        Q       H        Q       H        Q     
D|----------------|----------------|----------------|----------------|
A|----------------|----------------|----------------|----------------|
F|--2-------------|--3-------------|--2-------------|--3-------------|
C|----------------|----------------|----------------|----------------|
G|--0-------------|--1-------------|--0-------------|--1-------------|
D|----------------|----------------|----------------|----------------|

    H        Q       H        Q       H.              H.            
D|----------------|----------------|---------------|---------------|
A|----------------|----------------|---------------|---------------|
F|--2-------------|--3-------------|---------------|---------------|
C|----------------|----------------|--0------------|---------------|
G|--0-------------|--1-------------|---------------|--0------------|
D|----------------|----------------|---------------|---------------|

    H.              H.                Q    Q    Q       Q    Q    Q     
D|---------------|----------------||-----------------|-----------------|
A|---------------|----------------||-----------------|-----------------|
F|---------------|---------------*||-------2---------|-----------------|
C|--0------------|---------------*||--0---------3----|--0--------------|
G|---------------|--0-------------||-----------------|------------3----|
D|---------------|----------------||-----------------|-----------------|

    ^                 ^                 ^                 ^               
    Q    Q    Q       Q    Q    Q       Q    Q    Q       Q    Q    Q     
D|-----------------|-----------------|-----------------|-----------------|
A|-------1----1----|-------1----1----|-------1----1----|-------1----1----|
F|-------2----2----|-------2----2----|-------2----2----|-------2----2----|
C|--3--------------|-----------------|--3--------------|-----------------|
G|-----------------|--3--------------|-----------------|--3--------------|
D|-----------------|-----------------|-----------------|-----------------|

    ^                 ^                 ^                 ^               
    Q    Q    Q       Q    Q    Q       Q    Q    Q       Q    Q    Q     
D|-----------------|-----------------|-----------------|-----------------|
A|-------1----1----|-------1----1----|-------1----1----|-------1----1----|
F|-------3----3----|-------3----3----|-------2----2----|-------2----2----|
C|--2--------------|-----------------|--3--------------|-----------------|
G|-----------------|--3--------------|-----------------|--3--------------|
D|-----------------|-----------------|-----------------|-----------------|

    ^                 ^                 ^    ^    ^       ^               
    Q    Q    Q       Q    Q    Q       Q    Q    Q       Q    Q    Q     
D|-----------------|-----------------|-----------------|-----------------|
A|-----------------|-----------------|-------3---------|-----------------|
F|-------5----5----|-------5----5----|-------5---------|-------0----0----|
C|-------4----4----|-------4----4----|--5---------0----|-------0----0----|
G|--5--------------|--5--------------|-----------------|--1--------------|
D|-----------------|-----------------|-----------------|-----------------|

    ^                 ^                 ^                 ^               
    Q    Q    Q       Q    Q    Q       Q    Q    Q       Q    Q    Q     
D|-----------------|-----------------|-----------------|-----------------|
A|-------1----1----|-----------------|-------1----1----|-----------------|
F|-------2----2----|-------3----3----|-------2----2----|-------3----3----|
C|--3--------------|-------2----2----|--3--------------|-------2----2----|
G|-----------------|--3--------------|-----------------|--3--------------|
D|-----------------|-----------------|-----------------|-----------------|

    ^                 ^                 ^                 ^               
    Q    Q    Q       Q    Q    Q       Q    Q    Q       Q    Q    Q     
D|-----------------|-----------------|-----------------|-----------------|
A|-------1----1----|-------1----1----|-------1----1----|-------1----1----|
F|-------2----2----|-------2----2----|-------2----2----|-------2----2----|
C|--3--------------|-----------------|--3--------------|-----------------|
G|-----------------|--3--------------|-----------------|--3--------------|
D|-----------------|-----------------|-----------------|-----------------|

    ^                 ^                 ^                 ^               
    Q    Q    Q       Q    Q    Q       Q    Q    Q       Q    Q    Q     
D|-----------------|-----------------|-----------------|-----------------|
A|-------1----1----|-------1----1----|-------1----1----|-------1----1----|
F|-------3----3----|-------3----3----|-------2----2----|-------2----2----|
C|--5--------------|-----------------|-----------------|--3--------------|
G|-----------------|--3--------------|--3--------------|-----------------|
D|-----------------|-----------------|-----------------|-----------------|

    ^                 ^                 ^                 ^               
    Q    Q    Q       Q    Q    Q       Q    Q    Q       Q    Q    Q     
D|-----------------|-----------------|-----------------|-----------------|
A|-------1----1----|-------1----1----|-----------------|-----------------|
F|-------2----2----|-------2----2----|-------3----3----|-------0----0----|
C|--3--------------|--1--------------|-------3----3----|-------3----3----|
G|-----------------|-----------------|--5--------------|--4--------------|
D|-----------------|-----------------|-----------------|-----------------|

    ^                 ^                 ^                               
    Q    Q    Q       Q    Q    Q       Q    Q    Q       H.            
D|-----------------|-----------------|-----------------|---------------|
A|-----------------|-----------------|-----------------|--4------------|
F|-------2----2----|-------3----3----|--2--------------|--2------------|
C|-------3----3----|-------5----5----|--3--------------|--3------------|
G|--3--------------|--3--------------|-----------------|---------------|
D|-----------------|-----------------|-----------------|---------------|

     ^                 ^                 ^                 ^               
     Q    Q    Q       Q    Q    Q       Q    Q    Q       Q    Q    Q     
D|--------1----1----|-----------------|-------1----1----|-----------------|
A|--------3----3----|-------1----1----|-------3----3----|-------1----1----|
F|*--3--------------|-------2----2----|--3--------------|-------2----2----|
C|*-----------------|--3--------------|-----------------|--3--------------|
G|------------------|-----------------|-----------------|-----------------|
D|------------------|-----------------|-----------------|-----------------|

    ^                 ^                 ^                 ^               
    Q    Q    Q       Q    Q    Q       Q    Q    Q       Q    Q    Q     
D|-------1----1----|-----------------|-------1----1----|-----------------|
A|-------4----4----|-------1----1----|-------4----4----|-------1----1----|
F|--5--------------|-------2----2----|--5--------------|-------2----2----|
C|-----------------|--3--------------|-----------------|--3--------------|
G|-----------------|-----------------|-----------------|-----------------|
D|-----------------|-----------------|-----------------|-----------------|

    ^                 ^                 ^                 ^               
    Q    Q    Q       Q    Q    Q       Q    Q    Q       Q    Q    Q     
D|-------1----1----|-----------------|-------1----1----|-----------------|
A|-------3----3----|-------1----1----|-------3----3----|-------1----1----|
F|--3--------------|-------2----2----|--3--------------|-------2----2----|
C|-----------------|--3--------------|-----------------|--3--------------|
G|-----------------|-----------------|-----------------|-----------------|
D|-----------------|-----------------|-----------------|-----------------|

    ^                 ^                 ^                 ^                 
    Q    Q    Q       Q    Q    Q       Q    Q    Q       Q    Q    Q       
D|-----------------|-----------------|-----------------|------------------|
A|-----------------|-----------------|-----------------|-------1----1-----|
F|-------3----3----|-------3----3----|-------3----3----|-------2----2----*|
C|-------5----5----|-------5----5----|-------2----2----|--3--------------*|
G|--6--------------|--5--------------|--3--------------|------------------|
D|-----------------|-----------------|-----------------|------------------|

    ^                 ^                 ^                 ^               
    Q    Q    Q       Q    Q    Q       Q    Q    Q       Q    Q    Q     
D|-----------------|-------3----3----|-------1----1----|-------1----1----|
A|-------1----1----|-------2----2----|-------3----3----|-------3----3----|
F|-------2----2----|--2--------------|-------2----2----|-------2----2----|
C|--3--------------|-----------------|--0--------------|-----------------|
G|-----------------|-----------------|-----------------|--0--------------|
D|-----------------|-----------------|-----------------|-----------------|

    ^                 ^                   ^                 ^               
    Q    Q    Q       Q    Q    Q         Q    Q    Q       Q    Q    Q     
D|-------1----1----|-------1----1----||--------1----1----|-------1----1----|
A|-------3----3----|-------3----3----||--------3----3----|-------3----3----|
F|-------2----2----|-------2----2----||*-------2----2----|-------2----2----|
C|--0--------------|-----------------||*--0--------------|-----------------|
G|-----------------|--0--------------||------------------|--0--------------|
D|-----------------|-----------------||------------------|-----------------|

    ^                 ^                 ^                 ^               
    Q    Q    Q       Q    Q    Q       Q    Q    Q       Q    Q    Q     
D|-------1----1----|-------1----1----|-------1----1----|-------1----1----|
A|-------3----3----|-------3----3----|-------3----3----|-------3----3----|
F|-------2----2----|-------2----2----|-------2----2----|-------2----2----|
C|--0--------------|-----------------|--0--------------|-----------------|
G|-----------------|--0--------------|-----------------|--0--------------|
D|-----------------|-----------------|-----------------|-----------------|

    ^                 ^                 ^                 ^               
    Q    Q    Q       Q    Q    Q       Q    Q    Q       Q    Q    Q     
D|-----------------|-----------------|-----------------|-----------------|
A|-------3----3----|-------2----2----|-------3----3----|-------3----3----|
F|-------3----3----|-------2----2----|-------3----3----|-------3----3----|
C|--2--------------|-----------------|--2--------------|-----------------|
G|-----------------|--0--------------|-----------------|--0--------------|
D|-----------------|-----------------|-----------------|-----------------|

    ^                 ^                 ^                 ^               
    Q    Q    Q       Q    Q    Q       Q    Q    Q       Q    Q    Q     
D|-----------------|-----------------|-----------------|-----------------|
A|-----------------|-----------------|-----------------|-----------------|
F|-------0----0----|-------0----0----|-------0----0----|-------0----0----|
C|-------7----7----|-------2----2----|-------7----7----|-------2----2----|
G|--7--------------|--0--------------|--7--------------|--0--------------|
D|-----------------|-----------------|-----------------|-----------------|

    ^                 ^                 ^                 ^               
    Q    Q    Q       Q    Q    Q       Q    Q    Q       Q    Q    Q     
D|-------1----1----|-------1----1----|-------1----1----|-------1----1----|
A|-------3----3----|-------3----3----|-------3----3----|-------3----3----|
F|-------2----2----|-------2----2----|-------2----2----|-------2----2----|
C|--0--------------|-----------------|--0--------------|-----------------|
G|-----------------|--0--------------|-----------------|--0--------------|
D|-----------------|-----------------|-----------------|-----------------|

    ^                 ^                 ^                 ^               
    Q    Q    Q       Q    Q    Q       Q    Q    Q       Q    Q    Q     
D|-----------------|-----------------|-----------------|-----------------|
A|-------3----3----|-------3----3----|-----------------|-----------------|
F|-------3----3----|-------3----3----|-------3----3----|-------3----3----|
C|--5--------------|--0--------------|-------5----5----|-------5----5----|
G|-----------------|-----------------|--0--------------|--0--------------|
D|-----------------|-----------------|-----------------|-----------------|

    ^                                                                   
    Q    Q    Q       Q    Q    Q       H        Q       H        Q     
D|-----------------|-----------------|----------------|----------------|
A|-------1----1----|--3--------------|----------------|----------------|
F|-------2----2----|--3--------------|--2-------------|--3-------------|
C|--3--------------|-----------------|----------------|----------------|
G|-----------------|-----------------|--0-------------|--1-------------|
D|-----------------|-----------------|----------------|----------------|

    H        Q       H        Q       H        Q       H        Q     
D|----------------|----------------|----------------|----------------|
A|----------------|----------------|----------------|----------------|
F|--2-------------|--3-------------|--2-------------|--3-------------|
C|----------------|----------------|----------------|----------------|
G|--0-------------|--1-------------|--0-------------|--1-------------|
D|----------------|----------------|----------------|----------------|

    H        Q       H        Q       H        Q       H        Q             
D|----------------|----------------|----------------|----------------|-------|
A|----------------|----------------|----------------|----------------|-------|
F|--2-------------|--3-------------|--2-------------|--3-------------|-------|
C|----------------|----------------|----------------|----------------|-------|
G|--0-------------|--1-------------|--0-------------|--1-------------|-------|
D|----------------|----------------|----------------|----------------|-------|

            ^                 ^                 ^                 ^               
            Q    Q    Q       Q    Q    Q       Q    Q    Q       Q    Q    Q     
D|-------|-------1----1----|-------1----1----|-------1----1----|-------1----1----|
A|-------|-------3----3----|-------3----3----|-------3----3----|-------3----3----|
F|-------|-------2----2----|-------2----2----|-------2----2----|-------2----2----|
C|-------|--0--------------|-----------------|--0--------------|-----------------|
G|-------|-----------------|--0--------------|-----------------|--0--------------|
D|-------|-----------------|-----------------|-----------------|-----------------|

    ^                 ^                 ^                 ^               
    Q    Q    Q       Q    Q    Q       Q    Q    Q       Q    Q    Q     
D|-------1----1----|-------1----1----|-----------------|-----------------|
A|-------3----3----|-------3----3----|-------3----3----|-------2----2----|
F|-------2----2----|-------2----2----|-------3----3----|-------2----2----|
C|--0--------------|-----------------|--2--------------|-----------------|
G|-----------------|--0--------------|-----------------|--0--------------|
D|-----------------|-----------------|-----------------|-----------------|

    ^                 ^                 ^                 ^               
    Q    Q    Q       Q    Q    Q       Q    Q    Q       Q    Q    Q     
D|-----------------|-----------------|-----------------|-----------------|
A|-------3----3----|-------3----3----|-----------------|-----------------|
F|-------3----3----|-------3----3----|-------0----0----|-------0----0----|
C|--2--------------|-----------------|-------7----7----|-------2----2----|
G|-----------------|--0--------------|--7--------------|--0--------------|
D|-----------------|-----------------|-----------------|-----------------|

    ^                 ^                 ^                 ^               
    Q    Q    Q       Q    Q    Q       Q    Q    Q       Q    Q    Q     
D|-----------------|-----------------|-------1----1----|-------1----1----|
A|-----------------|-----------------|-------3----3----|-------3----3----|
F|-------0----0----|-------0----0----|-------2----2----|-------2----2----|
C|-------7----7----|-------2----2----|--0--------------|-----------------|
G|--7--------------|--0--------------|-----------------|--0--------------|
D|-----------------|-----------------|-----------------|-----------------|

    ^                 ^                 ^                 ^               
    Q    Q    Q       Q    Q    Q       Q    Q    Q       Q    Q    Q     
D|-------1----1----|-------1----1----|-----------------|-----------------|
A|-------3----3----|-------3----3----|-------3----3----|-------3----3----|
F|-------2----2----|-------2----2----|-------3----3----|-------3----3----|
C|--0--------------|-----------------|--5--------------|--0--------------|
G|-----------------|--0--------------|-----------------|-----------------|
D|-----------------|-----------------|-----------------|-----------------|

    ^                 ^                 ^                                 
    Q    Q    Q       Q    Q    Q       Q    Q    Q       Q    Q    Q     
D|-----------------|-----------------|-----------------|-----------------|
A|-----------------|-----------------|-------1----1----|--3--------------|
F|-------3----3----|-------3----3----|-------2----2----|--3--------------|
C|-------5----5----|-------5----5----|--3--------------|-----------------|
G|--0--------------|--0--------------|-----------------|-----------------|
D|-----------------|-----------------|-----------------|-----------------|

    H        Q       H        Q       H        Q       H        Q     
D|----------------|----------------|----------------|----------------|
A|----------------|----------------|----------------|----------------|
F|--2-------------|--3-------------|--2-------------|--3-------------|
C|----------------|----------------|----------------|----------------|
G|--0-------------|--1-------------|--0-------------|--1-------------|
D|----------------|----------------|----------------|----------------|

    H        Q       H        Q       H        Q       H        Q     
D|----------------|----------------|----------------|----------------|
A|----------------|----------------|----------------|----------------|
F|--2-------------|--3-------------|--2-------------|--3-------------|
C|----------------|----------------|----------------|----------------|
G|--0-------------|--1-------------|--0-------------|--1-------------|
D|----------------|----------------|----------------|----------------|

    H        Q       H        Q       Q    Q    Q       Q    Q    Q      
D|----------------|----------------|-----------------|-----------------||
A|----------------|----------------|-----------------|-----------------||
F|--2-------------|--2-------------|-----------------|-----------------||
C|----------------|----------------|--0--------------|-----------------||
G|--0-------------|--0-------------|------------0----|-----------------||
D|----------------|----------------|-----------------|-----------------||


************************************

| *  Natural harmonic
| W - whole
| H - half
| Q - quarter
| E - 8th
| L - tied note 

************************************

            
            
Suggest correction
Creating personal tab
Creating personal tab
You can edit any tab online and save it as your Personal.

You can edit, replace or remove any tab part or add personal notes – all changes will be seen only by you.

Personal tabs can be accessed anytime from any device, even offline.
Learn more »
comments
print report bad tab
1 comment total.
0 reply
UniversallyDope 10 Oct 03, 2013 11:43 PM

You are a legend! Thank you so much man, I was devastated when i saw no tabs for this anywhere. This is my favorite song of his, It's so mischievous.

guest
You may want to rate the tab now too:
select rating
Wanna post a correction for this tab? Suggest correction