Oops, an error
Loading. Please wait.

One More Road To Cross Tab

1,205 views 1 this week
1 commentread comment
1 2 3 4 5
x 5
add to favorites
launch autoscroll
font size
0
reset
how to read this tab
guitar tuner
Autoscroll
slow
fast
+/-
esc
set tempo
stop
DMX- One more road to cross.
 Tabbed by molongo_mc@hotmail.co.
  
DMX
One More Road To Cross

|---------------------------------------------------|
|---------------------------------------------------|
|----------------------------------------4-5-7-5----|
|-------------------------7-5--------------------5--|
|-7-7-5-3------5-7-5-3---------8-7------------------|
|---------5------------5-------------5--------------|

******************************************************************************
By Claudio Peña
molongo_mc@hotmail.com
 
:: Ultimate Guitar Archive :: 
http://www.ultimate-guitar.com 



Suggest correction
comments
print report bad tab
1 comment total.
0 reply
bowsep2001 10 Jul 03, 2003 12:00 AM

(BACKGROUND MUSIC)
E------------------------------------------------------
B----------------------------------------0-1-3-0-------
G----------------------------2-2-0---------------2-----
D-2-2-0---------0-2-0--------------3-2-----------------
A-------3-0-----------3-0--------------0---------------
E------------------------------------------------------
(cHORUS)
E----------------------------------------------0-------
B------------------------------------1---0-1-3---1-----
G----------------------------2-0-2-2---2----------2----
D-2-2-0---------0-2-0----------------------------------
A-------3-0-----------3-0------------------------------
E------------------------------------------------------

guest
You may want to rate the tab now too:
select rating
Wanna post a correction for this tab? Suggest correction