Oops, an error
Loading. Please wait.

Body Moves Bass Tab

by Dnce
157 views 27 this week
2 commentsread comments
1 2 3 4 5
2 more votes to show rating
add to favorites
launch autoscroll
font size
0
reset
guitar tuner
Autoscroll
slow
fast
+/-
esc
set tempo
stop
Help us to improve Ultimate-Guitar.com Take our survey!
×
Author
Difficulty
intermediate
About this tab version
This Tab will give you the main Bass line for the song, as well as the other parts to the entire song if you wish to know how it is all played. Bands love these types of tabs so I understand. Was this info helpful? Yes No
[Intro]
G|--------6-------------3-----------------6-5-3------|
D|-----------3-3-3-3--36--------8--------------63----|
A|--4-4-4---6---------------------34-4-4-4-----------|
E|------------------------6-6-6----------------------|
         (P)                   (P)

[Verse/Chorus]
G|--------6-------------3-----------------6-5-3------|
D|-----------3-3-3-3--36--------8--------------63----|
A|--4-4-4---6---------------------34-4-4-4-----------|
E|------------------------6-6-6----------------------|
         (P)                   (P)

[Bridge]
G|---------------8-8-86---------|
D|------6--68-68-------68-------| 4x
A|--8-68--8---------------------|
E|------------------------------|

[Ending Pre-Chorus]
G|---------------------------------------------------|
D|----------------11-8-------11----------------------|
A|--------8---8-11-------8-11------------------------|
E|--9---11----------------------9--------9-9\--------|


************************************

| \   Slide down
| P   Pop

************************************
Suggest correction
Give kudos to tab author, rate the tab!
1 2 3 4 5
comments
print report bad tab
2 comments total.
0 reply
krunkinater 35 Nov 24, 2016 06:48 AM

Great Tab!

0 reply
BCHurricane89 30 Nov 25, 2016 06:20 PM

Awesome! I play the main riff this way, which seems a bit easier to play:

[Main Riff]
G|-------6--------------------------------------5----------|
D|----------------------6-h8-------8--------------8-6------|
A|-4-4-4--4-6-/8-8-8-8------------------4-4-4--4------8-6--|
E|---------------------------6-6-6--6-8--------------------|

guest
You may want to rate the tab now too:
select rating
Wanna post a correction for this tab? Suggest correction