Oops, an error
Loading. Please wait.

Cake By The Ocean bass

version 1
version 1

Whole song

Interactive

by Dnce
46,531 views 252 this week
10 commentsread comments
1 2 3 4 5
x 55
add to favorites
×
Save as Personal and add changes to this tab that will be seen only by you. Learn more ›
×
You can save this tab as Personal to edit and correct it or add notes. All changes will be seen only by you. Learn more »
launch autoscroll
font size
0
reset
guitar tuner
backing track
0:00
0:00
edit
Autoscroll
slow
fast
+/-
esc
set tempo
stop
Author
Difficulty
-------------------------------------------------------------------------------
                             CAKE BY THE OCEAN - DNCE
-------------------------------------------------------------------------------
Tabbed by:NeonKoolAid
There are two different ways of playing this song.  Both ways work.  
 
E-mail: harrisonneyland12@gmail.com

Tuning:
E A D G


[Version 1]
G|---------------------------------------------------------------------------|
D|---------------------------------------------------------------------------|
A|-------14---14-14-14--13--12--12--15---15-15-15--14------------------------|
E|-12-12---------------------------------------------------------------------|


[Version 2]
G|---------------------------------------------------------------------------|
D|---9-999-8-7----7-10-101010-9----------------------------------------------|
A|7-----------------------------7--------------------------------------------|
E|---------------------------------------------------------------------------|


| /  slide up
| \  slide down
| h  hammer-on
| p  pull-off
| ~  vibrato
| +  harmonic
| x  Mute note

            
            
Suggest correction
Creating personal tab
Creating personal tab
You can edit any tab online and save it as your Personal.

You can edit, replace or remove any tab part or add personal notes – all changes will be seen only by you.

Personal tabs can be accessed anytime from any device, even offline.
Learn more »
comments
print report bad tab
10 comments total. Showing first comments.
+1 reply
andreaj_21 10 Dec 23, 2015 12:25 PM

Lack of accuracy. The bass tab does not sound right, my bass is in tune and every thing but still doesn't sound like it is in the right key.

+1 reply
erib7118 10 Jan 02, 2016 06:42 AM

It should start on the E string 12th fret (High E) and the same note progression.

0 reply
nooraa8 33 Feb 20, 2016 06:02 AM

sounds good on normal guitar

guest
You may want to rate the tab now too:
select rating
Wanna post a correction for this tab? Suggest correction