Oops, an error
Loading. Please wait.

Cake By The Ocean tab

version 1
version 1

Whole song

  • Its the whole song, all tabs, lyrics of song bro.
  • Because this version shows both ways you can play this song.

Interactive

by Dnce
91,084 views 498 this week
5 commentsread comments
1 2 3 4 5
x 65
add to favorites
×
Save as Personal and add changes to this tab that will be seen only by you. Learn more ›
×
You can save this tab as Personal to edit and correct it or add notes. All changes will be seen only by you. Learn more »
launch autoscroll
font size
0
reset
how to read this tab
guitar tuner
backing track
0:00
0:00
edit
Autoscroll
slow
fast
+/-
esc
set tempo
stop
Author
Difficulty
intermediate
-------------------------------------------------------------------------------
                             Cake by the Ocean - DNCE
-------------------------------------------------------------------------------
Tabbed by: Matt Magnaghi
E-mail: mattmagnaghi@gmail.com


(in the recording, the intro riff is played throughout the entire song, with
all the other guitar tracks being overdubbed on top of it)

(If you just want to strum along with chords, use  Em Bm7 Am7 C )

Watch my cover on Youtube: https://www.youtube.com/watch?v=iRd2bS3M-lI


[Intro]

e|-----------------------------------------|
B|-----------------------------------------|
G|-----------------------------------------|
D|-----------------------------------------|  x6  (2x as song intro, 4x w/vocals)
A|-----------------------------------------|
E|0-----0-7--7-7-7--6-5-----5-8---8-8-8--7-|


[Verse Riff A]

e|--7---7---7---7---5---5---8---7--|
B|--8---8---7---7---5---5---5---4--|
G|--9---9---7---7---5---5---5---4--|  x3
D|---------------------------------|
A|---------------------------------|
E|---------------------------------|


[Instrumental]

e|-----------------------------------------|
B|-----------------------------------------|
G|-----------------------------------------|
D|-----------------------------------------|
A|-----------------------------------------|
E|0-----0-7--7-7-7--6-5-----5-8---8-8-8--7-|


[Chorus Riff A]

e|12---12-12-------14---14-14-------12---12-12-------15---15-15--------------|
B|12---12-12-------15---15-15-------13---13-13-------17---17-17--------------|
G|12---12-12-------14---14-14-------12---12-12-------17---17-17--------------|  x8
D|---------------------------------------------------------------------------|
A|---------------------------------------------------------------------------|
E|---------------------------------------------------------------------------|


[Instrumental]

e|-----------------------------------------|
B|-----------------------------------------|
G|-----------------------------------------|
D|-----------------------------------------|
A|-----------------------------------------|
E|0-----0-7--7-7-7--6-5-----5-8---8-8-8--7-|


[Verse Riff B]

e|-12-------12-------14-14-14-14-----13-----12-------12----------------------|
B|-12-------12-------15-15-15-15-----14-----13-------13----------------------|
G|-12-------12-------14-14-14-14-----13-----12-------12----------------------|
D|---------------------------------------------------------------------------|  x4
A|---------------------------------------------------------------------------|
E|---------------------------------------------------------------------------|
(The first chord is not played the first time)


[Verse Riff A]

e|--7---7---7---7---5---5---8---7--|
B|--8---8---7---7---5---5---5---4--|
G|--9---9---7---7---5---5---5---4--|  x4
D|---------------------------------|
A|---------------------------------|
E|---------------------------------|


[Instrumental]

e|-----------------------------------------|
B|-----------------------------------------|
G|-----------------------------------------|
D|-----------------------------------------|
A|-----------------------------------------|
E|0-----0-7--7-7-7--6-5-----5-8---8-8-8--7-|


[Chorus Riff A]

e|12---12-12-------14---14-14-------12---12-12-------15---15-15--------------|
B|12---12-12-------15---15-15-------13---13-13-------17---17-17--------------|
G|12---12-12-------14---14-14-------12---12-12-------17---17-17--------------|  x8
D|---------------------------------------------------------------------------|
A|---------------------------------------------------------------------------|
E|---------------------------------------------------------------------------|


[Chorus Riff B]

e|12-------12-------14---14-14-----13----12--------12-------15---15-15----14-|
B|12-------12-------15---15-15-----14----13--------13-------17---15-15----14-|
G|12-------12-------14---14-14-----13----12--------12-------17---17-17----16-|  x4
D|---------------------------------------------------------------------------|
A|---------------------------------------------------------------------------|
E|---------------------------------------------------------------------------|


[Instrumental]

e|-----------------------------------------|
B|-----------------------------------------|
G|-----------------------------------------|
D|-----------------------------------------|
A|-----------------------------------------|
E|0-----0-7--7-7-7--6-5-----5-8---8-8-8--7-|


[Chorus Riff A]

e|12---12-12-------14---14-14-------12---12-12-------15---15-15--------------|
B|12---12-12-------15---15-15-------13---13-13-------17---17-17--------------|
G|12---12-12-------14---14-14-------12---12-12-------17---17-17--------------|  x8
D|---------------------------------------------------------------------------|
A|---------------------------------------------------------------------------|
E|---------------------------------------------------------------------------|


[Chorus Riff B]

e|12-------12-------14---14-14-----13----12--------12-------15---15-15----14-|
B|12-------12-------15---15-15-----14----13--------13-------17---15-15----14-|
G|12-------12-------14---14-14-----13----12--------12-------17---17-17----16-|  x4
D|---------------------------------------------------------------------------|
A|---------------------------------------------------------------------------|
E|---------------------------------------------------------------------------|

            
            
Suggest correction
Creating personal tab
Creating personal tab
You can edit any tab online and save it as your Personal.

You can edit, replace or remove any tab part or add personal notes – all changes will be seen only by you.

Personal tabs can be accessed anytime from any device, even offline.
Learn more »
comments
print report bad tab
5 comments total. Showing first comments.
0 reply
TrisVampsDrums 601 Jan 17, 2016 01:59 AM

Awesome tab, played along to the song and matched perfectly!
Great job!

0 reply
arjunator1 10 Feb 07, 2016 07:28 PM

This is great thanks

+1 reply
mike_schipani 10 Feb 10, 2016 02:56 PM

Great tab, works perfectly

guest
You may want to rate the tab now too:
select rating
Wanna post a correction for this tab? Suggest correction