Oops, an error
Loading. Please wait.

Cake By The Ocean tab

version 2
version 2

Whole song

  • Its the whole song, all tabs, lyrics of song bro.
  • Because this version shows both ways you can play this song.

Interactive

by Dnce
3,460 views 21 this week
1 commentread comment
1 2 3 4 5
x 4
add to favorites
×
Save as Personal and add changes to this tab that will be seen only by you. Learn more ›
×
You can save this tab as Personal to edit and correct it or add notes. All changes will be seen only by you. Learn more »
launch autoscroll
font size
0
reset
how to read this tab
guitar tuner
backing track
0:00
0:00
edit
Autoscroll
slow
fast
+/-
esc
set tempo
stop
Author
Difficulty
[Intro]

e|--------------------------------------------------------------------|
B|--------------------------------------------------------------------|
G|--------------------------------------------------------------------|
D|--------------------------------------------------------------------|
A|--------2-2-1-0--0-3-3-3--2-2-----2-2-1-0--0-3-3-3-2-2--------------|
E|--0--0------------------------0-0----------------------0------------|


[Verse]
 
e|-0-----0---0--0---2----3----2----0-----0-------0---0--0---2--3--2----0-----|
B|---0--------------------------------3-------0------------------------------|
G|---------------------------------------------------------------------------|
D|---------------------------------------------------------------------------|
A|---------------------------------------------------------------------------|
E|---------------------------------------------------------------------------|

  oh no see you walkin round like its a funeral not to serious  girl why 
e|---3-----0----0--0----0---0----2--3----2--0---------0-------0--------------|
B|------------------------------------------------3-------0------------------|
G|---------------------------------------------------------------4s2---------|
D|---------------------------------------------------------------------------|
A|---------------------------------------------------------------------------|
E|---------------------------------------------------------------------------|
   those feet cold We just getting started don't you tip toe tip toe

   
[Pre-Chorus]

e|---------------------------------------------------------------------------|
B|---------------------------------------------------------------------------|
G|--2-----2---2--2--2----2--2-----2----2-----2---2---2-2-----2--2---2-----2--|
D|---------------------------------------------------------------------------|
A|---------------------------------------------------------------------------|
E|---------------------------------------------------------------------------|
  Waste time with a masterpiece dont waste time with a masterpiece you should
  

e|---------------------------------------------------------------------------|
B|---------------------------------------------------------------------------|
G|--2--2--2----2--2---2-----2---2---2---2---2---2--2--4----------------------|
D|-------------------------------------------------------2-------------------|
A|---------------------------------------------------------------------------|
E|---------------------------------------------------------------------------|
   be rollin with me you should be rolling with me ah ah ah
   
e|---------------------------------------------------------------------------|
B|---------------------------------------------------------------------------|
G|--2--2--2----2---2---2-2--2---2--2----2---2---2-4--2---2---2-----2-2-------|
D|---------------------------------------------------------------------------|
A|---------------------------------------------------------------------------|
E|---------------------------------------------------------------------------|
  Your a real life fantasy your a real life fantasy but your moving so 
  
e|---------------------------------------------------------------------------|
B|---------------------------------------------------------------------------|
G|2-----2-2---2----2---2------2-4--------0-----------------------------------|
D|-------------------------------------2-------------------------------------|
A|---------------------------------------------------------------------------|
E|---------------------------------------------------------------------------|
  carefully lets start living dangerously 

  
[Chorus]

e|-10----------------------------------------------------------7------------|
B|-----10-10--10----------7--8----10---10---10----10-----10-------8---------|
G|-----------------9-9------------------------------------------------9-----|
D|--------------------------------------------------------------------------|
A|--------------------------------------------------------------------------|
E|--------------------------------------------------------------------------|
  Talk to me baby Im going blind form this sweet sweet craving ah oh Lets 
  
e|--------------------------------------------------------------------------|
B|------7----8---10---10--10-10-10-10-----7--8--7--7------------------------|
G|-9---------------------------------9-9--7--8--7--7--9--9---9---9--9-------|
D|--------------------------------------------------------------------------|
A|---------------------------------------------------------------------7----|
E|--------------------------------------------------------------------------|
  lose our minds and go crazy crazy ah ya ya ya ya ya I keep on hopin we'll 
  
e|--------------------------------------------------------------------------|
B|--------------------------------------------------------------------------|
G|-----9---9---9----9---9---------------------------------------------------|
D|--------------------------------------------------------------------------|
A|-7------------------------------------------------------------------------|
E|--------------------------------------------------------------------------|
  eat cake by the ocean huh
  
  
[Riff]
e|---------------------------------------------------------------------------|
B|---------------------------------------------------------------------------|
G|---------------------------------------------------------------------------|
D|---------------------------------------------------------------------------|
A|---------------------------------------------------------------------------|
E|-0-0-7-7-6-5-5-8-8-8-7-0-0-7-7-6-5-5-8-8-8-7-0-----------------------------|
Suggest correction
Creating personal tab
Creating personal tab
You can edit any tab online and save it as your Personal.

You can edit, replace or remove any tab part or add personal notes – all changes will be seen only by you.

Personal tabs can be accessed anytime from any device, even offline.
Learn more »
comments
print report bad tab
1 comment total.
0 reply
lis26 48 Jun 20, 2016 12:47 AM

timing wäre schön

guest
You may want to rate the tab now too:
select rating
Wanna post a correction for this tab? Suggest correction