Oops, an error
Loading. Please wait.

Cake By The Ocean tab

version 3
version 3

Whole song

  • Its the whole song, all tabs, lyrics of song bro.
  • Because this version shows both ways you can play this song.

Interactive

by Dnce
1,027 views 3 this week
1 commentread comment
1 2 3 4 5
3 more votes to show rating
add to favorites
×
Save as Personal and add changes to this tab that will be seen only by you. Learn more ›
×
You can save this tab as Personal to edit and correct it or add notes. All changes will be seen only by you. Learn more »
launch autoscroll
font size
0
reset
how to read this tab
guitar tuner
backing track
0:00
0:00
edit
Autoscroll
slow
fast
+/-
esc
set tempo
stop
About this tab version
Its the whole song, all tabs, lyrics of song bro. Was this info helpful? Yes No
a try at getting the lyrics on guitar... couldn't get the "uh!" right though...

[Verse]

(oh no...)                        (why so serious?...)
e|---------------------------------------------------------------------------|
B|--5--0----5-5-5-7-8-7-5-3-5--0----5-5-5-7-8-7-5-3-5--0---------------------|
G|---------------------------------------------------------------------------|
D|---------------------------------------------------------------------------|
A|---------------------------------------------------------------------------|
E|---------------------------------------------------------------------------|
(we just getting....)                (waste time....)                    (uh!)
e|---------------------------------------------------------------------------|
B|-5-5-5-7-8-7-5-3-5--0----5--0----------------------------------------------|
G|---------------------------------2--2--2-2-2--2-2---2--2--2-2-2--2-2---3s4|
D|---------------------------------------------------------------------------|
A|---------------------------------------------------------------------------|
E|---------------------------------------------------------------------------|
(you should be...)                       (ahh ah)
e|---------------------------------------------------------------------------|
B|---------------------------------------------------------------------------|
G|-2--2--2-2-2--2-2---2--2--2-2-2--2-2---2s4p0-------------------------------|
D|---------------------------------------------------------------------------|
A|---------------------------------------------------------------------------|
E|---------------------------------------------------------------------------|
(you're a real life....)               (uh!)
e|---------------------------------------------------------------------------|
B|---------------------------------------------------------------------------|
G|-2--2--2-2-2--2-2---2--2--2-2-2--2-2---3s4---------------------------------|
D|---------------------------------------------------------------------------|
A|---------------------------------------------------------------------------|
E|---------------------------------------------------------------------------|
(but you're moving ...)    (start living dangerously)
e|---------------------------------------------------------------------------|
B|-2--2--2-2-2--2-2---2--2--2-2-4-0-0----------------------------------------|
G|---------------------------------------------------------------------------|
D|---------------------------------------------------------------------------|
A|---------------------------------------------------------------------------|
E|---------------------------------------------------------------------------|


[Chorus] (do chorus here twice)
                    
e|-10--------------------------10------------------------------10------------|
B|----10-10-10-10---5-5-7-8-10----10-10-10-10-12-8---5-5-7-8-10--10-10-10-10-|
G|---------------------------------------------------------------------------|
D|---------------------------------------------------------------------------|
A|---------------------------------------------------------------------------|
E|---------------------------------------------------------------------------|

e|---------------------------------------------------------------------------|
B|-5-5-7-8-7--5--5-5-5---0-0---5--5-5-5--5-----------------------------------|
G|---------------------------------------------------------------------------|
D|---------------------------------------------------------------------------|
A|---------------------------------------------------------------------------|
E|---------------------------------------------------------------------------|


[Verse]

(god damn...)                        (want another taste...)
e|---------------------------------------------------------------------------|
B|--5--0----5-5-5-7-8-7-5-3-5--0----5-5-5-7-8-7-5-3-5--0---------------------|
G|---------------------------------------------------------------------------|
D|---------------------------------------------------------------------------|
A|---------------------------------------------------------------------------|
E|---------------------------------------------------------------------------|
(I'm tired of....)             (waste time....)                      (uh!)
e|---------------------------------------------------------------------------|
B|-5-5-5-7-8-7-5-3-5--0--5--0------------------------------------------------|
G|----------------------------2s4---2--2--2-2-2--2-2---2--2--2-2-2--2-2---3s4|
D|---------------------------------------------------------------------------|
A|---------------------------------------------------------------------------|
E|---------------------------------------------------------------------------|

(you should be...)                       (ahh ah)
e|---------------------------------------------------------------------------|
B|---------------------------------------------------------------------------|
G|-2--2--2-2-2--2-2---2--2--2-2-2--2-2---2s4p0-------------------------------|
D|---------------------------------------------------------------------------|
A|---------------------------------------------------------------------------|
E|---------------------------------------------------------------------------|
(you're a real life....)               (uh!)
e|---------------------------------------------------------------------------|
B|---------------------------------------------------------------------------|
G|-2--2--2-2-2--2-2---2--2--2-2-2--2-2---3s4---------------------------------|
D|---------------------------------------------------------------------------|
A|---------------------------------------------------------------------------|
E|---------------------------------------------------------------------------|
(but you're moving ...)    (start living dangerously) (woo ohh wo ha)
e|---------------------------------------------------------------------------|
B|-2--2--2-2-2--2-2---2--2--2-2-4-0-0-----5s7s8s10---------------------------|
G|---------------------------------------------------------------------------|
D|---------------------------------------------------------------------------|
A|---------------------------------------------------------------------------|
E|---------------------------------------------------------------------------|


[Chorus] (do chorus twice)
                    
e|-10--------------------------10------------------------------10------------|
B|----10-10-10-10---5-5-7-8-10----10-10-10-10-12-8---5-5-7-8-10--10-10-10-10-|
G|---------------------------------------------------------------------------|
D|---------------------------------------------------------------------------|
A|---------------------------------------------------------------------------|
E|---------------------------------------------------------------------------|

e|---------------------------------------------------------------------------|
B|-5-5-7-8-7--5--5-5-5---0-0---5--5-5-5--5-----------------------------------|
G|---------------------------------------------------------------------------|
D|---------------------------------------------------------------------------|
A|---------------------------------------------------------------------------|
E|---------------------------------------------------------------------------|

(then do this twice: )
(ohh ah ha)
e|---------------------------------------------------------------------------|
B|---11s12----15-------------------------------------------------------------|
G|---------------14----------------------------------------------------------|
D|---------------------------------------------------------------------------|
A|---------------------------------------------------------------------------|
E|---------------------------------------------------------------------------|

e|---------------------------------------------------------------------------|
B|-5-5-7-8-7--5--5-5-5---0-0---5--5-5-5--5-----------------------------------|
G|---------------------------------------------------------------------------|
D|---------------------------------------------------------------------------|
A|---------------------------------------------------------------------------|
E|---------------------------------------------------------------------------|

(and move on to here:)
(talk to me girl...)
e|---------------------------------------------------------------------------|
B|---5-7-8-10s12-------------------------------------------------------------|
G|---------------------------------------------------------------------------|
D|---------------------------------------------------------------------------|
A|---------------------------------------------------------------------------|
E|---------------------------------------------------------------------------|


[Chorus](do it twice)

e|-10--------------------------10------------------------------10------------|
B|----10-10-10-10---5-5-7-8-10----10-10-10-10-12-8---5-5-7-8-10--10-10-10-10-|
G|---------------------------------------------------------------------------|
D|---------------------------------------------------------------------------|
A|---------------------------------------------------------------------------|
E|---------------------------------------------------------------------------|

e|---------------------------------------------------------------------------|
B|-5-5-7-8-7--5--5-5-5---0-0---5--5-5-5--5-----------------------------------|
G|---------------------------------------------------------------------------|
D|---------------------------------------------------------------------------|
A|---------------------------------------------------------------------------|
E|---------------------------------------------------------------------------|


[Outro]

e|---7-7---5-5-------------------7-7---5-5-----------------------------------|
B|-5-----5-----5-8-8-7-8-5-----5-----5-----5-8-8-7-8-5-----------------------|
G|---------------------------------------------------------------------------|
D|---------------------------------------------------------------------------|
A|---------------------------------------------------------------------------|
E|---------------------------------------------------------------------------|

e|---7-7---5-5---------------------------------------------------------------|
B|-5-----5-----5-8-8-7-8----5-5-7-8-7--5--5-5-5---0-0---5--5-5-5--5----------|
G|---------------------------------------------------------------------------|
D|---------------------------------------------------------------------------|
A|---------------------------------------------------------------------------|
E|---------------------------------------------------------------------------|



************************************

| p  Pull-off
| s  Slide

************************************

            
            
Suggest correction
Creating personal tab
Creating personal tab
You can edit any tab online and save it as your Personal.

You can edit, replace or remove any tab part or add personal notes – all changes will be seen only by you.

Personal tabs can be accessed anytime from any device, even offline.
Learn more »
Give kudos to tab author, rate the tab!
1 2 3 4 5
comments
print report bad tab
1 comment total.
0 reply
iack753 10 Jan 09, 2017 11:22 AM

awesome!!

guest
You may want to rate the tab now too:
select rating
Wanna post a correction for this tab? Suggest correction