Oops, an error
Loading. Please wait.

Kissing Strangers bass

version 1
version 1

Whole song

by Dnce
5,905 views 144 this week
no commentswrite comment
1 2 3 4 5
x 5
add to favorites
×
Save as Personal and add changes to this tab that will be seen only by you. Learn more ›
×
You can save this tab as Personal to edit and correct it or add notes. All changes will be seen only by you. Learn more »
launch autoscroll
font size
0
reset
guitar tuner
edit
Autoscroll
slow
fast
+/-
esc
set tempo
stop
Author
Difficulty
My version found played here: https:www.youtube.comwatch?v=zqS7ewqOFIM
This groove is played throughout the song, just a little variation on the pre-chorus and rap part.

[Intro]
G|---------------------------------------------------------------------------|
D|--------------------6---------6--------------------------------------------| 
A|---------------4h6------4h6--------6----4--------------4-------------------|  
E|--------4-----------------------------------------4h6-------4------2-------|   
                                                                                  
G|---------------------------------------------------------------------------|   
D|---------------------------------------------------------------------------|  
A|----6h7h9------6h7h9-----7----6-----------6--------------------------------| 
E|-----------------------------------6h8--------6----------------------------|

G|---------------------------------------------------------------------------|
D|--------------------6---------6--------------------------------------------| 
A|---------------4h6------4h6--------6----4--------------4-------------------|  
E|--------4-----------------------------------------4h6-------4------2-------|   
                                                                                  
G|---------------------------------------------------------------------------|   
D|---------------------------------------------------------------------------|  
A|----6h7h9------6h7h9-----7----6-----------6--------------------------------| 
E|-----------------------------------6h8--------6----------------------------|

G|---------------------------------------------------------------------------|
D|--------------------6---------6--------------------------------------------| 
A|---------------4h6------4h6--------6----4--------------4-------------------|  
E|--------4-----------------------------------------4h6-------4------2-------|   
                                                                                  
G|---------------------------------------------------------------------------|   
D|---------------------------------------------------------------------------|  
A|----6h7h9------6h7h9-----7----6-----------6--------------------------------| 
E|-----------------------------------6h8--------6----------------------------|

[Pre-Chorus]
G|---------------------------------------------------------------------------|
D|--------------------6---------6--------------------------------------------| 
A|---------------4h6------4h6--------6----4--------------4-------------------|  
E|--------4-----------------------------------------4h6-------4------2-------|   
                                                                                  
G|---------------------------------------------------------------------------|   
D|---------------------------------------------------------------------------|  
A|----6h7h9------6h7h9-----7-------------------------------------------------| 
E|---------------------------------------------------------------------------|

[Chorus]
G|---------------------------------------------------------------------------|
D|--------------------6---------6--------------------------------------------| 
A|---------------4h6------4h6--------6----4--------------4-------------------|  
E|--------4-----------------------------------------4h6-------4------2-------|   
                                                                                  
G|---------------------------------------------------------------------------|   
D|---------------------------------------------------------------------------|  
A|----6h7h9------6h7h9-----7----6-----------6--------------------------------| 
E|-----------------------------------6h8--------6----------------------------|

G|---------------------------------------------------------------------------|
D|--------------------6---------6--------------------------------------------| 
A|---------------4h6------4h6--------6----4--------------4-------------------|  
E|--------4-----------------------------------------4h6-------4------2-------|   
                                                                                  
G|---------------------------------------------------------------------------|   
D|---------------------------------------------------------------------------|  
A|----6h7h9------6h7h9-----7----6-----------6--------------------------------| 
E|-----------------------------------6h8--------6----------------------------|

G|---------------------------------------------------------------------------|
D|--------------------6---------6--------------------------------------------| 
A|---------------4h6------4h6--------6----4--------------4-------------------|  
E|--------4-----------------------------------------4h6-------4------2-------|   
                                                                                  
G|---------------------------------------------------------------------------|   
D|---------------------------------------------------------------------------|  
A|----6h7h9------6h7h9-----7----6-----------6--------------------------------| 
E|-----------------------------------6h8--------6----------------------------|

G|---------------------------------------------------------------------------|
D|--------------------6---------6--------------------------------------------| 
A|---------------4h6------4h6--------6----4--------------4-------------------|  
E|--------4-----------------------------------------4h6-------4------2-------|   
                                                                                  
G|---------------------------------------------------------------------------|   
D|---------------------------------------------------------------------------|  
A|----6h7h9------6h7h9-----7----6-----------6--------------------------------| 
E|-----------------------------------6h8--------6----------------------------|

[Verse]
G|---------------------------------------------------------------------------|
D|--------------------6---------6--------------------------------------------| 
A|---------------4h6------4h6--------6----4--------------4-------------------|  
E|--------4-----------------------------------------4h6-------4------2-------|   
                                                                                  
G|---------------------------------------------------------------------------|   
D|---------------------------------------------------------------------------|  
A|----6h7h9------6h7h9-----7----6-----------6--------------------------------| 
E|-----------------------------------6h8--------6----------------------------|

G|---------------------------------------------------------------------------|
D|--------------------6---------6--------------------------------------------| 
A|---------------4h6------4h6--------6----4--------------4-------------------|  
E|--------4-----------------------------------------4h6-------4------2-------|   
                                                                                  
G|---------------------------------------------------------------------------|   
D|---------------------------------------------------------------------------|  
A|----6h7h9------6h7h9-----7----6-----------6--------------------------------| 
E|-----------------------------------6h8--------6----------------------------|

G|---------------------------------------------------------------------------|
D|--------------------6---------6--------------------------------------------| 
A|---------------4h6------4h6--------6----4--------------4-------------------|  
E|--------4-----------------------------------------4h6-------4------2-------|   
                                                                                  
G|---------------------------------------------------------------------------|   
D|---------------------------------------------------------------------------|  
A|----6h7h9------6h7h9-----7----6-----------6--------------------------------| 
E|-----------------------------------6h8--------6----------------------------|

[Pre-Chorus]
G|---------------------------------------------------------------------------|
D|--------------------6---------6--------------------------------------------| 
A|---------------4h6------4h6--------6----4--------------4-------------------|  
E|--------4-----------------------------------------4h6-------4------2-------|   
                                                                                  
G|---------------------------------------------------------------------------|   
D|---------------------------------------------------------------------------|  
A|----6h7h9------6h7h9-----7-------------------------------------------------| 
E|---------------------------------------------------------------------------|

[Chorus]
G|---------------------------------------------------------------------------|
D|--------------------6---------6--------------------------------------------| 
A|---------------4h6------4h6--------6----4--------------4-------------------|  
E|--------4-----------------------------------------4h6-------4------2-------|   
                                                                                  
G|---------------------------------------------------------------------------|   
D|---------------------------------------------------------------------------|  
A|----6h7h9------6h7h9-----7----6-----------6--------------------------------| 
E|-----------------------------------6h8--------6----------------------------|

G|---------------------------------------------------------------------------|
D|--------------------6---------6--------------------------------------------| 
A|---------------4h6------4h6--------6----4--------------4-------------------|  
E|--------4-----------------------------------------4h6-------4------2-------|   
                                                                                  
G|---------------------------------------------------------------------------|   
D|---------------------------------------------------------------------------|  
A|----6h7h9------6h7h9-----7----6-----------6--------------------------------| 
E|-----------------------------------6h8--------6----------------------------|

G|---------------------------------------------------------------------------|
D|--------------------6---------6--------------------------------------------| 
A|---------------4h6------4h6--------6----4--------------4-------------------|  
E|--------4-----------------------------------------4h6-------4------2-------|   
                                                                                  
G|---------------------------------------------------------------------------|   
D|---------------------------------------------------------------------------|  
A|----6h7h9------6h7h9-----7----6-----------6--------------------------------| 
E|-----------------------------------6h8--------6----------------------------|

G|---------------------------------------------------------------------------|
D|--------------------6---------6--------------------------------------------| 
A|---------------4h6------4h6--------6----4--------------4-------------------|  
E|--------4-----------------------------------------4h6-------4------2-------|   
                                                                                  
G|---------------------------------------------------------------------------|   
D|---------------------------------------------------------------------------|  
A|----6h7h9------6h7h9-----7----6-----------6--------------------------------| 
E|-----------------------------------6h8--------6----------------------------|

[Rap]
G|---------------------------------------------------------------------------|
D|--------------------6---------6--------------------------------------------| 
A|---------------4h6------4h6--------6----4--------------4-------------------|  
E|--------4-----------------------------------------4h6-------4------2-------|   
                                                                                  
G|---------------------------------------------------------------------------|   
D|---------------------------------------------------------------------------|  
A|----6h7h9------6h7h9-----7----6-----------6--------------------------------| 
E|-----------------------------------6h8--------6----------------------------|

G|---------------------------------------------------------------------------|
D|--------------------6---------6--------------------------------------------| 
A|---------------4h6------4h6--------6----4--------------4-------------------|  
E|--------4-----------------------------------------4h6-------4------2-------|   
                                                                                  
G|---------------------------------------------------------------------------|   
D|---------------------------------------------------------------------------|  
A|----6h7h9------6h7h9-----7----6--------------------------------------------| 
E|-----------------------------------6h8-------------------------------------|

G|---------------------------------------------------------------------------|
D|--------------------6---------6--------------------------------------------| 
A|---------------4h6------4h6--------6----4--------------4-------------------|  
E|--------4-----------------------------------------4h6-------4------2-------|   
                                                                                  
G|---------------------------------------------------------------------------|   
D|---------------------------------------------------------------------------|  
A|----6h7h9------6h7h9-----7----6--------------------------------------------| 
E|-----------------------------------6h8-------------------------------------|

[Outro]
G|---------------------------------------------------------------------------|
D|--------------------6---------6--------------------------------------------| 
A|---------------4h6------4h6--------6----4--------------4-------------------|  
E|--------4-----------------------------------------4h6-------4------2-------|   
                                                                                  
G|---------------------------------------------------------------------------|   
D|---------------------------------------------------------------------------|  
A|----6h7h9------6h7h9-----7----6-----------6--------------------------------| 
E|-----------------------------------6h8--------6----------------------------|


G|---------------------------------------------------------------------------|
D|--------------------6---------6--------------------------------------------| 
A|---------------4h6------4h6--------6----4--------------4-------------------|  
E|--------4-----------------------------------------4h6-------4------2-------|   
                                                                                  
G|---------------------------------------------------------------------------|   
D|---------------------------------------------------------------------------|  
A|----6h7h9------6h7h9-----7----6-----------6--------------------------------| 
E|-----------------------------------6h8--------6----------------------------|

G|---------------------------------------------------------------------------|
D|--------------------6---------6--------------------------------------------| 
A|---------------4h6------4h6--------6----4--------------4-------------------|  
E|--------4-----------------------------------------4h6-------4------2-------|   
                                                                                  
G|---------------------------------------------------------------------------|   
D|---------------------------------------------------------------------------|  
A|----6h7h9------6h7h9-----7----6-----------6--------------------------------| 
E|-----------------------------------6h8--------6----------------------------|

G|---------------------------------------------------------------------------|
D|--------------------6---------6--------------------------------------------| 
A|---------------4h6------4h6--------6----4--------------4-------------------|  
E|--------4-----------------------------------------4h6-------4------2-------|   
                                                                                  
G|---------------------------------------------------------------------------|   
D|---------------------------------------------------------------------------|  
A|----6h7h9------6h7h9-----7----6-----------6--------------------------------| 
E|-----------------------------------6h8--------6----------------------------|

************************************

| h  Hammer-on

************************************

            
            
Suggest correction
Creating personal tab
Creating personal tab
You can edit any tab online and save it as your Personal.

You can edit, replace or remove any tab part or add personal notes – all changes will be seen only by you.

Personal tabs can be accessed anytime from any device, even offline.
Learn more »
comments
print report bad tab
guest
You may want to rate the tab now too:
select rating
Wanna post a correction for this tab? Suggest correction