Oops, an error
Loading. Please wait.

Kissing Strangers bass

version 2
version 2

Whole song

by Dnce
442 views 39 this week
1 commentread comment
1 2 3 4 5
x 3
add to favorites
×
Save as Personal and add changes to this tab that will be seen only by you. Learn more ›
×
You can save this tab as Personal to edit and correct it or add notes. All changes will be seen only by you. Learn more »
launch autoscroll
font size
0
reset
guitar tuner
edit
Autoscroll
slow
fast
+/-
esc
set tempo
stop
[Intro/Verse 1]
(This bass line is used throughout the whole song.
The hammer-on parts can be strummed or plucked individually if preferred.)
G|---------------------------------------------------|
D|-------3h4h5-3h4h5---------------------------------|
A|---------------------5--3----1h2h3-----------------|
E|--3------------------------------------3-----------|
                                                        (2x)
G|---------------------------------------------------|
D|-------1h2h3-1h2h3--1-0----------------------------|
A|---------------------------3h4h5-------------------|
E|--1-------------------------------5----------------|

[Pre-chorus]
G|---------------------------------------------------|
D|-------3h4h5-3h4h5---------------------------------|
A|---------------------5--3----1h2h3-----------------|
E|--3------------------------------------3-----------|
                                                          (2x)
G|---------------------------------------------------|
D|-------1h2h3-1h2h3--1-0----------------------------|
A|---------------------------3h4h5-------------------|
E|--1-------------------------------5----------------|

[Chorus]
G|---------------------------------------------------|
D|-------3h4h5-3h4h5---------------------------------|
A|---------------------5--3----1h2h3-----------------|
E|--3------------------------------------3-----------|
                                                         (4x)
G|---------------------------------------------------|
D|-------1h2h3-1h2h3--1-0----------------------------|
A|---------------------------3h4h5-------------------|
E|--1-------------------------------5----------------|

[Verse 2]
G|---------------------------------------------------|
D|-------3h4h5-3h4h5---------------------------------|
A|---------------------5--3----1h2h3-----------------|
E|--3------------------------------------3-----------|
                                                          (2x)
G|---------------------------------------------------|
D|-------1h2h3-1h2h3--1-0----------------------------|
A|---------------------------3h4h5-------------------|
E|--1-------------------------------5----------------|

[Pre-chorus]
G|---------------------------------------------------|
D|-------3h4h5-3h4h5---------------------------------|
A|---------------------5--3----1h2h3-----------------|
E|--3------------------------------------3-----------|
                                                          (2x)
G|---------------------------------------------------|
D|-------1h2h3-1h2h3--1-0----------------------------|
A|---------------------------3h4h5-------------------|
E|--1-------------------------------5----------------|

[Chorus]
G|---------------------------------------------------|
D|-------3h4h5-3h4h5---------------------------------|
A|---------------------5--3----1h2h3-----------------|
E|--3------------------------------------3-----------|
                                                          (4x)
G|---------------------------------------------------|
D|-------1h2h3-1h2h3--1-0----------------------------|
A|---------------------------3h4h5-------------------|
E|--1-------------------------------5----------------|

[Rap Verse]
G|---------------------------------------------------|
D|-------3h4h5-3h4h5---------------------------------|
A|---------------------5--3----1h2h3-----------------|
E|--3------------------------------------3-----------|
                                                          (4x)
G|---------------------------------------------------|
D|-------1h2h3-1h2h3--1-0----------------------------|
A|---------------------------3h4h5-------------------|
E|--1-------------------------------5----------------|

[Outro]
G|---------------------------------------------------|
D|-------3h4h5-3h4h5---------------------------------|
A|---------------------5--3----1h2h3-----------------|
E|--3------------------------------------3-----------|
                                                          (4x)
G|---------------------------------------------------|
D|-------1h2h3-1h2h3--1-0----------------------------|
A|---------------------------3h4h5-------------------|
E|--1-------------------------------5----------------|


************************************

| h  Hammer-on
| x  Dead note

************************************

            
            
Suggest correction
Creating personal tab
Creating personal tab
You can edit any tab online and save it as your Personal.

You can edit, replace or remove any tab part or add personal notes – all changes will be seen only by you.

Personal tabs can be accessed anytime from any device, even offline.
Learn more »
Give kudos to tab author, rate the tab!
1 2 3 4 5
comments
print report bad tab
1 comment total.
0 reply
BDbassist 113 4 days ago

great tab, thanks

guest
You may want to rate the tab now too:
select rating
Wanna post a correction for this tab? Suggest correction