Oops, an error
Loading. Please wait.

Truthfully tab

by Dnce
2,719 views 105 this week
4 commentsread comments
1 2 3 4 5
x 8
add to favorites
×
Save as Personal and add changes to this tab that will be seen only by you. Learn more ›
×
You can save this tab as Personal to edit and correct it or add notes. All changes will be seen only by you. Learn more »
launch autoscroll
font size
0
reset
how to read this tab
guitar tuner
edit
Autoscroll
slow
fast
+/-
esc
set tempo
stop
These are the chord shapes that are used in this song;
 Cadd9  G    D   Em7   B7   C    Cm   A7   Am
e|-3----3----2----3----2----0----3----0----0--|
B|-3----3----3----3----0----1----4----2----1--|
G|-0----0----2----0----2----0----5----0----2--|
D|-2----0----0----2----1----2----5----2----2--|
A|-3----2---------2----2----3----3----0----0--|
E|------3---------0--------------3------------|



[Intro]
  Cadd9   G         D         Em7       Cadd9   G         D
e|---------------------------------------------------------------------------|
B|-3------3--3------3--3------3---3------3------3--3------3------------------|
G|-0------0--0------2--2------0---0------0------0--0------2------------------|
D|------------------0--0----------------------------------0------------------|
A|-3-------------------------------------3-----------------------------------|
E|--------3--3----------------0---0-------------3--3-------------------------|

[Verse]
  Cadd9   G         D         Em7       Cadd9   G         D         Em7
e|---------------------------------------------------------------------------|
B|-3------3--3------3--3------3---3------3------3--3------3--3------3---3----|
G|-0------0--0------2--2------0---0------0------0--0------2--2------0---0----|
D|------------------0--0----------------------------------0--0---------------|
A|-3-------------------------------------3-----------------------------------|
E|--------3--3----------------0---0-------------3--3----------------0---0----|
  Cadd9   G         D         Em7       Cadd9   G         D
e|---------------------------------------------------------------------------|
B|-3------3--3------3--3------3---3------3------3--3------3------------------|
G|-0------0--0------2--2------0---0------0------0--0------2------------------|
D|------------------0--0----------------------------------0------------------|
A|-3-------------------------------------3-----------------------------------|
E|--------3--3----------------0---0-------------3--3-------------------------|
  Cadd9   G         D         Em7       Cadd9   G         D         Em7   
e|---------------------------------------------------------------------------|
B|-3------3--3------3--3------3---3------3------3--3------3--3------3---3----|
G|-0------0--0------2--2------0---0------0------0--0------2--2------0---0----|
D|------------------0--0----------------------------------0--0---------------|
A|-3-------------------------------------3-----------------------------------|
E|--------3--3----------------0---0-------------3--3----------------0---0----|
  Cadd9   G         D         Em7       Cadd9   G         D
e|---------------------------------------------------------------------------|
B|-3------3--3------3--3------3---3------3------3--3------3------------------|
G|-0------0--0------2--2------0---0------0------0--0------2------------------|
D|------------------0--0----------------------------------0------------------|
A|-3-------------------------------------3-----------------------------------|
E|--------3--3----------------0---0-------------3--3-------------------------|

[Chorus]
  Cadd9   G         D         Em7       Cadd9   G         D         Em7
e|---------------------------------------------------------------------------|
B|-3------3--3------3--3------3---3------3------3--3------3--3------3---3----|
G|-0------0--0------2--2------0---0------0------0--0------2--2------0---0----|
D|------------------0--0----------------------------------0--0---------------|
A|-3-------------------------------------3-----------------------------------|
E|--------3--3----------------0---0-------------3--3----------------0---0----|
  Cadd9   G         B7        Em7       Cadd9   G         D  
e|------------------2--2-----------------------------------------------------|
B|-3------3--3------0--0------3---3------3------3--3------3----3-3-3---------|
G|-0------0--0----------------0---0------0------0--0------2----2-2-2---------|
D|--------------------------------------------------------0----0-0-0---------|
A|-3----------------2--2-----------------3-----------------------------------|
E|--------3--3----------------0---0-------------3--3-------------------------|

[Interlude]
  Cadd9   G         D         Em7       Cadd9   G         D
e|---------------------------------------------------------------------------|
B|-3------3--3------3--3------3---3------3------3--3------3------------------|
G|-0------0--0------2--2------0---0------0------0--0------2------------------|
D|------------------0--0----------------------------------0------------------|
A|-3-------------------------------------3-----------------------------------|
E|--------3--3----------------0---0-------------3--3-------------------------|

[Verse]
  Cadd9   G         D         Em7       Cadd9   G         D         Em7  
e|---------------------------------------------------------------------------|
B|-3------3--3------3--3------3---3------3------3--3------3--3------3---3----|
G|-0------0--0------2--2------0---0------0------0--0------2--2------0---0----|
D|------------------0--0----------------------------------0--0---------------|
A|-3-------------------------------------3-----------------------------------|
E|--------3--3----------------0---0-------------3--3----------------0---0----|
  Cadd9   G         D         Em7       Cadd9   G         D
e|---------------------------------------------------------------------------|
B|-3------3--3------3--3------3---3------3------3--3------3------------------|
G|-0------0--0------2--2------0---0------0------0--0------2------------------|
D|------------------0--0----------------------------------0------------------|
A|-3-------------------------------------3-----------------------------------|
E|--------3--3----------------0---0-------------3--3-------------------------|

[Chorus]
  Cadd9   G         D         Em7       Cadd9   G         D         Em7
e|---------------------------------------------------------------------------|
B|-3------3--3------3--3------3---3------3------3--3------3--3------3---3----|
G|-0------0--0------2--2------0---0------0------0--0------2--2------0---0----|
D|------------------0--0----------------------------------0--0---------------|
A|-3-------------------------------------3-----------------------------------|
E|--------3--3----------------0---0-------------3--3----------------0---0----|
  Cadd9   G         B7        Em7       Cadd9   G         D     
e|------------------2--2-----------------------------------------------------|
B|-3------3--3------0--0------3---3------3------3--3------3----3-3-3---------|
G|-0------0--0----------------0---0------0------0--0------2----2-2-2---------|
D|--------------------------------------------------------0----0-0-0---------|
A|-3----------------2--2-----------------3-----------------------------------|
E|--------3--3----------------0---0-------------3--3-------------------------|

[Bridge]
   Am             C       Cm       G              Em7               A7      
e|-----------------------------------------------------------------------------------------------|
B|-1------1---1---1---1---4---4----3------3--3----3---3----3---3----2------2--2----2---2---2---2-|
G|-2------2---2---0---0---5---5----0------0--0----0---0----0---0----0------0--0----0---0---0---0-|
D|-----------------------------------------------------------------------------------------------|
A|-0------0---0---3---3---3---3-------------------------------------0------0--0----0---0---0---0-|
E|---------------------------------3------3--3----0---0----0---0---------------------------------|
  Cadd9       D
e|-----------------------------------------------------------------------------------------------|
B|-3----------3----------------------------------------------------------------------------------|
G|-0----------2----------------------------------------------------------------------------------|
D|------------0----------------------------------------------------------------------------------|
A|-3---------------------------------------------------------------------------------------------|
E|-----------------------------------------------------------------------------------------------|

[Chorus]
  Cadd9   G         D         Em7       Cadd9   G         D         Em7
e|---------------------------------------------------------------------------|
B|-3------3--3------3--3------3---3------3------3--3------3--3------3---3----|
G|-0------0--0------2--2------0---0------0------0--0------2--2------0---0----|
D|------------------0--0----------------------------------0--0---------------|
A|-3-------------------------------------3-----------------------------------|
E|--------3--3----------------0---0-------------3--3----------------0---0----|
  Cadd9   G         B7        Em7       Cadd9   G         D     
e|------------------2--2-----------------------------------------------------|
B|-3------3--3------0--0------3---3------3------3--3------3----3-3-3---------|
G|-0------0--0----------------0---0------0------0--0------2----2-2-2---------|
D|--------------------------------------------------------0----0-0-0---------|
A|-3----------------2--2-----------------3-----------------------------------|
E|--------3--3----------------0---0-------------3--3-------------------------|

[Outro]

  Cadd9   G         D         Em7       Cadd9   G         D         Em7
e|---------------------------------------------------------------------------|
B|-3------3--3------3--3------3---3------3------3--3------3--3------3---3----|
G|-0------0--0------2--2------0---0------0------0--0------2--2------0---0----|
D|------------------0--0----------------------------------0--0---------------|
A|-3-------------------------------------3-----------------------------------|
E|--------3--3----------------0---0-------------3--3----------------0---0----|
  Cadd9   G         B7        Em7       Cadd9   G         D     
e|------------------2--2--------------------------------------------------3--|
B|-3------3--3------0--0------3---3------3------3--3------3----3-3-3------3--|
G|-0------0--0----------------0---0------0------0--0------2----2-2-2------0--|
D|--------------------------------------------------------0----0-0-0------0--|
A|-3----------------2--2-----------------3--------------------------------2--|
E|--------3--3----------------0---0-------------3--3----------------------3--|

            
            
Suggest correction
Creating personal tab
Creating personal tab
You can edit any tab online and save it as your Personal.

You can edit, replace or remove any tab part or add personal notes – all changes will be seen only by you.

Personal tabs can be accessed anytime from any device, even offline.
Learn more »
comments
print report bad tab
4 comments total. Showing first comments.
0 reply
coehenryjumming 41 Jan 26, 2017 02:16 PM

This is awesome

0 reply
GreenLivi 26 Feb 26, 2017 10:29 AM

Perfect! Thanks for sharing this!

guest
You may want to rate the tab now too:
select rating
Wanna post a correction for this tab? Suggest correction