Oops, an error
Loading. Please wait.

Breakfast In Bed Tab

4,364 views 12 this week
1 commentread comment
1 2 3 4 5
please rate
add to favorites
launch autoscroll
font size
0
reset
how to read this tab
guitar tuner
Tab Pro tools
  • play this tab
  • loop segment
  • change instrument
  • show fretboard
  • metronome
×
Best way to learn
"Breakfast In Bed"
Autoscroll
slow
fast
+/-
esc
set tempo
stop
Contributor
-------------------------------------------------------------------------------
                                    Breakfast in Bed - Dntel
-------------------------------------------------------------------------------

Tabbed by: Yoshima


Tuning: Standard

Chords used;

.....C......F......G.....Am....
e|---3------1------3------5---|
B|---5------1------3------5---|
G|---5------2------3------5---|
D|---5------3------5------7---|
A|---3------3------5------7---|
E|---3------1------3------5---|


NOTE: This song obviously isn't composed to be played on the guitar so I have
      done my best to arrange it in a way that songs ok to play.

During the verses, instead of just playing C chords try playing something like:

e|--------------------------|----|------------------------|
B|--------------------------|----|------------------------|
G|--------5-------------5---|-or-|------4b5---------4b5---|
D|-----2-------------2------|----|----2-----------2-------|
A|---3------3-----3---------|----|--3-------3---3---------|
E|--------------------------|----|------------------------|

Trying the string bending method sounds more like the song but its harder to
   get it sounding right.

During the chorus' (when it hits the F chord) try fingerpicking the chords at a steady 
instead of strumming.

ps. If you come up with a better way to play the verse PM me on Ultimate-guitar
____________________________________________________________________________


.......C.......................................................
If you take a step, I will make you sure that you take the next
If you tell a lie, I'll just nod my head, yeah, I'll let it slide
Cause you woke me up, and there's birds outside, and I still feel drunk

(C)...................................................................F.........G...
But I'm glad you did, cause last night you weren't making that much sense.

.............Am.................C.............F.......G...
You said you wanna die, now you say you wanna live

.............Am.............C............F.......G...
You said you loved me after fourty five minutes

...........Am.............C...............F......F.....
If this is all a game can you just say it is?

...........G.................................
I'll do it anyway, so it makes no difference


_______________________________________________________________________________


..........C...........................................
We should order up, wash the wine out of the coffee cup
They got bread and fruit, there's probably not much else for you.

(C)...........................................................F.......G....
We can lay around, you can kiss me til the maids come kick us out.

....Am..................C............F.........G.....
It's eleven now so make every second count

............Am..................C..............F........G....
But back in New York they can't ever find this out

..........Am.......................C............F.......F.....
There are things we do, that we're really not allowed

...........G.............................................
We can say anything, but we just can't say it loud.

-------------------------------------------------------------------------------

then;

e|-------------|____|
B|-------------|____|
G|-------------|_x4_|
D|-------------|____|
A|---3---3-3---|____|
E|---3---3-3---|____|


e|----------------------------------------------|----|
B|--------1/5--------3/5------------------1/3---|----|
G|-----0-----------------------2--0-----4-------|-x2-|
D|---------------(0)--------2--------2----------|____|
A|--3--------------------0----------------------|____|
E|-------------3--------------------------------|____|

e|------------------------------------------3---3---|
B|--------1/5--------3/5------------------1/3---3---|
G|-----0-----------------------2--0-----4-------0---|
D|---------------(0)--------2--------2----------0---|
A|--3--------------------0----------------------2---|
E|-------------3--------------------------------3---|

----------------------------------------------------------------------------------

..C............................................
I hope you always find someone to take you home
To put you into bed, kiss your cheek, and check your pulse
Make sure you're still breathing, with their hand up to your nose
I wish that could be me, but it's just not possible.

[END]
comments
We did not receive enough feedback on this tab! Please rate:
print report bad tab
1 2 3 4 5
1 comment total.
0 reply
giveaboyagun wrote on December 19 2008, 02:07 pm

verses might sound a bit better with:

(C) if you take a step I will
(F) make sure that you
(G) take the next

it remains in key the electronic keyboard and vocals and varies the verse up a little.
Just a suggestion

I want to post or [tab]
guest
You may want to rate the tab now too:
select rating
Please do not post tabs as comments. Select "correction" instead!