Oops, an error
Loading. Please wait.

Why Im So Unhappy Tab

510 views 1 this week
1 commentread comment
1 2 3 4 5
x 3
add to favorites
launch autoscroll
font size
0
reset
how to read this tab
guitar tuner
Autoscroll
slow
fast
+/-
esc
set tempo
stop
Help us to improve Ultimate-Guitar.com Take our survey!
×
This is the intro but this is also played throughout the rest of the song. Sometimes
the last note in paranthesis is present and sometimes the riff goes back only halfway
when it loops again. Just listen to get it all exact.


Standard tuned down 1/2 step.

eb--------------------------------------|
Bb------------------6-5-----------------|
Gb-----------4-5-------------2-----4-5--|
Db--------------------------------------|
Ab-------3------------------------------|
Eb-1--1---------------------------------|

eb---------------------------------------------------|
Bb--------------------------5------------------------|
Gb--------------------2-4-----4(glitch repeat)---(2)-|
Db--------------2------------------------------------|
Ab--------2------------------------------------------|
Eb--0------------------------------------------------|


Thanks to RedTears for the help. Maybe someone besides me actually knows, loves and 
to play this song.

E-mail me if you have any changes or additions: mailbox_1984@yahoo.com
Suggest correction
Give kudos to tab author, rate the tab!
1 2 3 4 5
comments
print report bad tab
1 comment total.
0 reply
nick.rushtongiv 10 May 11, 2013 11:09 PM

This tab sounds perfect, but it's much easier to tune to and to play in drop D, and I have a feeling that's how it was originally played.

eb--------------------------------------|
Bb------------------5-4-----------------|
Gb-----------3-4-------------1-----3-4--|
Db--------------------------------------|
Ab-------2------------------------------|
Eb-2--2---------------------------------|

eb---------------------------------------------------|
Bb--------------------------4------------------------|
Gb--------------------1-3-----3(glitch repeat)---(1)-|
Db--------------1------------------------------------|
Ab--------1------------------------------------------|
Eb--1------------------------------------------------|

funny enough, I could say you tabbing this song is why I'm so happy xD Thank you for the excellent tab!!

guest
You may want to rate the tab now too:
select rating
Wanna post a correction for this tab? Suggest correction