Oops, an error
Loading. Please wait.

On My Shoulders bass

version 1
version 1

Whole song

Interactive

by Do
2,499 views 6 this week
no commentswrite comment
1 2 3 4 5
3 more votes to show rating
add to favorites
×
Save as Personal and add changes to this tab that will be seen only by you. Learn more ›
×
You can save this tab as Personal to edit and correct it or add notes. All changes will be seen only by you. Learn more »
launch autoscroll
font size
0
reset
guitar tuner
edit
Autoscroll
slow
fast
+/-
esc
set tempo
stop
Difficulty
RIFF
--0--0--0--0--0--0--0--0--|--0--0--0--0--0--0--0--0--|
--------------------------|--------------------------|
--------------------------|--------------------------|
--------------------------|--------------------------|
--------------------------|--------------------------|
--------------------------|--------------------------|


--0--0--0--0--0--0--0--0--|--0--0--0--0--0--0--0--0--|
--5--5--5--5--3--3--3--3--|--1--1--1--1--0--0--0--0--|
--------------------------|--------------------------|
--------------------------|--------------------------|
--------------------------|--------------------------|
--------------------------|--------------------------|

VERS 1

|------------------------||-------------------------|
|------------------------||-------------------------|
|------------------------||-------------------------|
|---5----5--5----5--5--5-||---5----5--5----5--5--5--|
Why would I carry such a weight on my shoulders ?

|------------------------||-------------------------|
|------------------------||-------------------------|
|------------------------||-------------------------|
|--3----3--3----3--3--3--||--3----3--3----3--3--3---|
Why do I always help you carry your boulders ?

|------------------------||-------------------------|
|------------------------||-------------------------|
|------------------------||-------------------------|
|---5----5--5----5--5--5-||---5----5--5----5--5--5--|
You wonder why I carry such a weight on my shoulders

|------------------------||-------------------------|
|------------------------||-------------------------|
|------------------------||-------------------------|
|--3----3--3----3--3--3--||--3----3--3----3--3--3---|
And why would I tttts such a load

    F
|------------------------|
|------------------------|
|------------------------|
|--1----1--1----1--1--1--|
Cos someday you'll see

          Dm
|------------------------------|
|------------------------------|
|------------------------------|
|--10----10--10----10--10--10--|
Next time I'll try it another way

Am                       Am
|-------------------------||-------------------------|
|*------------------------||*------------------------|
|*----------0----0--0--0--||*----------0----0--0--0--|
|---5----5----------------||---5----5----------------|
Am                       Am
|-------------------------||-------------------------|
|*------------------------||*------------------------|
|*----------0----0--0--0--||*----------0----0--0--0--|
|---5----5----------------||---5----5----------------|




VERS 2
Am                       Am
Why would you try to make me friends with them soldiers ?
G                        G 
When you know that I've never been familiar with orders
Am                       Am
When you know that my heart is in a pretty disorder
G                        G 
And you should know that in my heart you fill every corner

    F                             F
|------------------------||------------------------|
|------------------------||------------------------|
|------------------------||------------------------|
|--1----1--1----1--1--1--||--1----1--1----1--1--1--|
And someday you'll see that all I want is to please

          Dm                         
|------------------------------|
|------------------------------|
|------------------------------|
|--10----10--10----10--10--10--|
Next time I'll try it another way


BRIDGE
Am                   Am
|-------------------------||-------------------------|
|-------------------------||-------------------------|
|-----------0----0--0--0--||-----------0----0--0--0--|
|---5----5----------------||---5----5----------------|

G                     G     
|-------------------------||-------------------------||
|-------------------------||-------------------------||
|-------------------------||-------------------------||
|--3----3--3----3--3--3---||--3----3--3----3--3--3---||                          
How long will I sit and wait like a soldier ?

Am                   Am
|-------------------------||-------------------------|
|-------------------------||-------------------------|
|-----------0----0--0--0--||-----------0----0--0--0--|
|---5----5----------------||---5----5----------------|
G                     G    
|-------------------------||-------------------------||
|-------------------------||-------------------------||
|-------------------------||-------------------------||
|--3----3--3----3--3--3---||--3----3--3----3--3--3---||
How many summers will it take ?

Am                   Am
|-------------------------||-------------------------|
|-------------------------||-------------------------|
|-----------0----0--0--0--||-----------0----0--0--0--|
|---5----5----------------||---5----5----------------|
Am                   Am    
|-------------------------||-------------------------|
|-------------------------||-------------------------|
|-------------------------||-------------------------|
|--1----1--1----1--1--1---||--1----1--1----1--1--1---|                           
How many summers will I wait ?
|-------------------------||-------------------------||------------------------|
|-------------------------||-------------------------||------------------------|
|-------------------------||-------------------------||------------------------|
|--0----0--0----0--0--0---||--0----0--0----0--0--0---||--5---------------------|
E                    E                                Am
How many shoulders will I break ?


            
            
Suggest correction
Creating personal tab
Creating personal tab
You can edit any tab online and save it as your Personal.

You can edit, replace or remove any tab part or add personal notes – all changes will be seen only by you.

Personal tabs can be accessed anytime from any device, even offline.
Learn more »
Give kudos to tab author, rate the tab!
1 2 3 4 5
comments
print report bad tab
guest
Wanna post a correction for this tab? Suggest correction