Oops, an error
Loading. Please wait.

Tangerine Dream Tab

version 1
version 1

Whole song

Interactive

4,203 views 3 this week
no commentswrite comment
1 2 3 4 5
2 more votes to show rating
add to favorites
launch autoscroll
font size
0
reset
how to read this tab
guitar tuner
×
Best way to learn
"Tangerine Dream"
Autoscroll
slow
fast
+/-
esc
set tempo
stop
Tangerine Dream
 Do As Infinty
  Tabbed by SJ (kirei_008@hotmail.com)

Intro
----------------|
-------------4--|
-------6--5--3--|
-----6----4--2--|
---8------6--4--|
-6--------4--2--|

Verse
---------------------|
-------2------2------|
-----1----5---3---3--| ×2
---3------4---2---6--|
-1--------6---4---6--|
----------4---2---4--|

About 20 sec in
------------------------|
-10-11-13-1-10-11-10----|
---------------------11-|
------------------------|
------------------------|
------------------------|

------------------- -------------------------------|
--×2---------2----- -9p7-7-7-7p6-6-6-6-7-6-4-6-4-3-|
-------6--3--3--3-- -------------------------------|
-----6----6--2--6-- -------------------------------|
---8------6--4--6-- -------------------------------|
-9--------4--2--4-- -------------------------------|

--------------------- -----------------------------------|
-×2----3------------- -----------------------------------|
-----0-----10--8--10- -----------------------------------|
---0-------10--8--10- ------8-----8------12-10----10s12--|
------------8--6---8- -8h10---10----10-8-------10--------|
-3------------------- -----------------------------------|

-------×2------------ --0--|
--------------------- --6--|
-------7--10--8--10-- --5--|
-----8----10--8--10-- --3--|
---8-------8--6---8-- -----|
-6------------------- -----|


Chorus
-----------------------|
------×2---------------|
-----------------------|
----------8---------8--|
-8--7--5--6---8--5--6--|
-6--5--3------6--3-----|

Verse 2
---------------------|
-------2------2------|
-----1----5---3---5--| ×2
---3------4---2---4--|
-1--------6---4---6--|
----------4---2---4--|

--------------------------------------|
--------------------------------------|
-13s15--------------------------------|
-------15-13-15-13-11-15-13-11-13p11--|
--------------------------------------|
--------------------------------------|

-------------------|
--×2---------2-----|
-------6--5--3--5--|
-----6----4--2--4--|
---8------6--4--6--|
-9--------4--2--4--|


Solo

-10b--10----10b-8-|
-11b-----11-------|
------------------|
------------------|
------------------|
------------------|

---------------------------------|
---------11-10-8--10-8------s13b-|
----9-10---------------10-9------|
-10------------------------------|
---------------------------------|
---------------------------------|

---------------------------------------------------------------------|
---------------------------------------------------------------------|
-------------------------12-10---------------------------------------|
----------10-------12-12-------12-10-12-10-8----12-10-8-10-8---------|
-13p12p10----10-13---------------------------10--------------12-10---|
---------------------------------------------------------------------|

-13-13----------15----------13----------|
-------15p13-11----15p13-11----15p13-11-|
----------------------------------------|
----------------------------------------|
----------------------------------------|
----------------------------------------|

-------------------------------|
--15-11-14b14b---15-11-14b-----|
-------------------------------|
-------------------------------|
-------------------------------|
-------------------------------|


(after solo; around 2:42)
Play clean
-1--1--1-------1-- ------------------|
-1--1--1-------1-- ------------------|
-2--3--2-------3-- ------------------|
-3--3--3-------3-- ------------------|
-----------1-3---- ------------------|
---------1-------- ------------------|

-1--1--1-1-1--|
-1--1--1-1-3--|
-2--3--2-3-3--|
-3--3--3-2-3--|
---------3-1--|
--------------|

Then just repeat the chorus.
Suggest correction
Give kudos to tab author, rate the tab!
1 2 3 4 5
comments
print report bad tab
guest
You may want to rate the tab now too:
select rating
Wanna post a correction for this tab? Suggest correction