Oops, an error
Loading. Please wait.

Reitschule bass

version 2
version 2

Whole song

997 views 1 this week
no commentswrite comment
1 2 3 4 5
x 3
add to favorites
×
Save as Personal and add changes to this tab that will be seen only by you. Learn more ›
×
You can save this tab as Personal to edit and correct it or add notes. All changes will be seen only by you. Learn more »
launch autoscroll
font size
0
reset
guitar tuner
edit
Autoscroll
slow
fast
+/-
esc
set tempo
stop
Author
Difficulty
Do Make Say Think - Reitschule
Tabbed by: Steve Meadows

Ok well i tabbed the main riff earlier but decided to do the whole song now that I have some time.
It is standard tuning but Charles uses a 5 string.

There is a guitar intro so no bass until 2:23

2:23
G-----------------------------------------------------------11----|
D-------------------------------------------12----------------12--|
A--------------------------------------10h12--12-10h12-10h12------|
E--10-10-10-10-10-10-10-10-10-10-10-10----------------------------|
B-----------------------------------------------------------------|

2:28-4:27
G-----------------------------11----|
D-------------12----------------12--|
A--10h12-10h12--12-10h12-10h12------|
E-----------------------------------|
B-----------------------------------|

4:28
G-----------------------------11------|
D-------------12----------------12----|
A--------10h12--12-10h12-10h12--------|
E-10(x24)-----------------------------|
B-------------------------------------|

4:37-6:19
G-----------------------------11----|
D-------------12----------------12--|
A--10h12-10h12--12-10h12-10h12------|
E-----------------------------------|
B-----------------------------------|

6:20-7:20
G---------------------------14--14--14-11-11-11-----------|
D---12--12--12--12--12--12--------------------------------|
A-10--10--10--10--10--10--12--12--12--9--9--9-------------|
E-----------------------------------------------10--------|
B----------------------------------------------8--(x12)---|

7:21
G---------------------------------------------------------------------------|
D---12----------------------------------------------------------------------|
A-10--(x12)---------------------------------------------------7-77x7777x7---|
E-----------10-----------------7-77x7777x7-10-1010x10101010x10--------------|
B----------8--(x12)-8-88x8888x8---------------------------------------------|

With distortion
G-----------------------11-11-11------|
D-------------------------------------|
A-------------------7(x6)--7--7--7----|
E-------7(x12)-10(x12)----------------|
B--8(x12)-----------------------------|

G---------------------------------------------------------------------------|
D---12----------------------------------------------------------------------|
A-10--(x12)---------------------------------------------------7-77x7777x7---|
E-----------10-----------------7-77x7777x7-10-1010x10101010x10--------------|
B----------8--(x12)-8-88x8888x8---------------------------------------------|

With distortion
G-----------------------11-11-11------|
D-------------------------------------|
A-------------------7(x6)--7--7--7----|
E-------7(x12)-10(x12)----------------|
B--8(x12)-----------------------------|

8:10-8:39
G---------------------------14--14--14-11-11-11-----------|
D---12--12--12--12--12--12--------------------------------|
A-10--10--10--10--10--10--12--12--12--9--9--9-------------|
E-----------------------------------------------10--------|
B----------------------------------------------8--(x12)---|

8:40
G-----------------------11----|
D-------12----------------12--|
A--10h12--12-10h12-10h12------|
E-----------------------------|
B-----------------------------|

8:43-9:11
G-----------------------------11----|
D-------------12----------------12--|
A--10h12-10h12--12-10h12-10h12------|
E-----------------------------------|
B-----------------------------------|

9:12
End on
G---------------------|
D---------------------|
A--10-hold/fade out---|
E---------------------|
B---------------------|

Any comments and corrections are welcome. smeadows@rc.edu
Music brings us together.

            
            
Suggest correction
Creating personal tab
Creating personal tab
You can edit any tab online and save it as your Personal.

You can edit, replace or remove any tab part or add personal notes – all changes will be seen only by you.

Personal tabs can be accessed anytime from any device, even offline.
Learn more »
Give kudos to tab author, rate the tab!
1 2 3 4 5
comments
print report bad tab
guest
You may want to rate the tab now too:
select rating
Wanna post a correction for this tab? Suggest correction