Oops, an error
Loading. Please wait.

The In Crowd bass

155 views 1 this week
no commentswrite comment
1 2 3 4 5
3 more votes to show rating
add to favorites
×
Save as Personal and add changes to this tab that will be seen only by you. Learn more ›
×
You can save this tab as Personal to edit and correct it or add notes. All changes will be seen only by you. Learn more »
launch autoscroll
font size
0
reset
guitar tuner
edit
Autoscroll
slow
fast
+/-
esc
set tempo
stop
Author
Difficulty
The In Crowd

Two bass tabs for the price of one. The first version by Dobie Gray is
As per his original from 1965 where it reached number 25 in UK and 13
In the USA. Both Tabs by bass50611.
The Second version is an “extremely rare” one by Dobie Gray recorded for 
the Northern Soul Scene in the Seventies and one tone higher than his 
sixties original. Released as the B side to Out On The Floor. Straight 
forward tab of this version although one might have trouble getting a 
copy of this song. Play with a Motown feel. 
Comments at bass254@btinternet.com 

PART ONE - Original Version

Intro:       (Play This x2)
G|-------------------------
D|-------------------------
A|-------------------------
E|-4---4-4---4-4---4-4---4-

Chorus:      (Play This x4)
G|-------------------------
D|-------------------------
A|-------------------------
E|-4---4-4---4-4---4-4---4-

Verse 1:
G|-------------------------------------------------------------------------
D|-------------------------------------------------------------------------
A|-4---4-4---4-4---4-4---4-4---4-4---4-------------------0-2-3---3-3---3-3-
E|------------------------------------4---4-4---4-4---4-4------------------
                                                                        .
G|------------------------------------------------------------------------
D|--------------------------------------------------------1---1-1---1-3-4-
A|-3-3---3------------------------1---1-1---1-1---1-1---1-----------------
E|--------1---1-1---1-1---1-1---1-----------------------------------------

  [           Play Quavers          }
G|-----------------------------------
D|-----------------------------------
A|-----------------------------------
E|-2-2-2-2-2-2-2-2---2-2-2-2-2-2-2-3-

Repeat Chorus:

Repeat Verse 1:

For Instrumental Interlude Repeat Chorus:

Verse 3:
G|-------------------------------------------------------------------------
D|-------------------------------------------------------------------------
A|-4---4-4---4-4---4-4---4-4---4-4---4-------------------0-2-3---3-3---3-3-
E|------------------------------------4---4-4---4-4---4-4------------------
                                                                        .
G|------------------------------------------------------------------------
D|--------------------------------------------------------1---1-1---1-3-4-
A|-3-3---3------------------------1---1-1---1-1---1-1---1-----------------
E|--------1---1-1---1-1---1-1---1-----------------------------------------

  [           Play Quavers            }
G|-------------------------------------
D|-------------------------------------
A|-------------------------------------
E|-2-2-2-2-2-2-2-2---2-2-2-2-2-0-2-3-4-

Outro:         (Repeat To Fade)
G|-----------------------------
D|-----------------------------
A|-----------------------------
E|---4-4---4-4---4-4---0-2-3-4-

PART TWO - Northern Soul Version

Intro:
              [               Play This x2)                   ]
G|------------|------------------------------------------------
D|-SMALL DRUM-|-8--6-8--6---6--4-6--4---8--6-8--6----6--4-6--4-
A|---START----|---8----8------6----6------8----8-------6----6--
E|------------|------------------------------------------------

Chorus:                                  (Play This x2) 
G|--------------------------------------------------
D|-8--6-8--6----6--4-6--4----8--6-8--6----6--4-6--4-
A|---8----8-------6----6-------8----8-------6----6--
E|--------------------------------------------------

Verse:
G|-----------------------------------------------------------------
D|-----------------------8--6-8--6-8--6-8--6-----------------------
A|-6--4-6--4-6--4-6--4-----8----8----8----8----5--3-5--3-5--3-5--3-
E|---6----6----6----6----------------------------5----5----5----5--

                                              .         .    [Quavers]
G|---------------------------------------------------------------------
D|-5--3-5--3-5--3-5--3----------------------------------------66666666-
A|---5----5----5----5----3--1-3--1-3--1-3--1---------------------------
E|-------------------------3----3----3----3---1-----1-3-4--------------

Repeat Chorus 

Repeat Verse:

Instrumental Interlude: (Repeat Chorus & Verse)

Repeat Chorus:

Repeat Verse:

Outro:                              (REPEAT TO FADE/END)
G|--------------------------------------------------
D|-8--6-8--6----6--4-6--4----8--6-8--6----6--4-6--4-
A|---8----8-------6----6-------8----8-------6----6--
E|--------------------------------------------------

            
            
Suggest correction
Creating personal tab
Creating personal tab
You can edit any tab online and save it as your Personal.

You can edit, replace or remove any tab part or add personal notes – all changes will be seen only by you.

Personal tabs can be accessed anytime from any device, even offline.
Learn more »
Give kudos to tab author, rate the tab!
1 2 3 4 5
comments
print report bad tab
guest
You may want to rate the tab now too:
select rating
Wanna post a correction for this tab? Suggest correction