Oops, an error
Loading. Please wait.

Call Of The Road chords

349 views 12 this week
no commentswrite comment
1 2 3 4 5
2 more votes to show rating
add to favorites
×
Save as Personal and add changes to this tab that will be seen only by you. Learn more ›
×
You can save this tab as Personal to edit and correct it or add notes. All changes will be seen only by you. Learn more »
launch autoscroll
font size
0
reset
transpose
0
reset
display chords
guitar tuner
edit
Autoscroll
slow
fast
+/-
esc
set tempo
stop
Author
Strumming
There is no strumming pattern for this song yet. and get +5 IQ
Riff 1 :
e|----------------|----------------|--------------------|------------|
B|----------------|----------------|--------------------|------------|
G|----------------|----------------|--------------------|------------|
D|--2--0--2--0----|----------------|--------------------|------------|
A|----------------|---3---2--------|---3---2-0----------|------------|
E|----------------|----------------|o-------------------|------------|

[Verse 1]

             Am     G      C
When I was a boy, I had to know what 
        F                  E
I would find just over the hill 
                  Am     F      Am
And while still a lad, I had to go, 
    Dm     E                Am
and so you see I'm rambling still 

(Play the Riff 1)


[Verse 2]

              Am       G          C
life's golden cup, was filled for me 
          F                   E
with happiness and measures untold,
               Am      F         Am
but i left the one who cared for me. 
  Dm         E                       Am
a treasure's worth so much more than gold.


Riff 2 :
e|----------------|----------------|--------------------|--------------------|
B|----------------|----------------|--------------------|--------------------|
G|------2---------|-2-2---0--------|--------------------|----------0---------|
D|--------0-2-----|---------0-2----|-2-2-2-0-2-3--------|-2-0-2-3----3-2-----|
A|-0--0-----------|----------------|--------------------|--------------------|
E|----------------|----------------|--------------------|--------------------|


[Verse 3]

               Am         G      C
young men that roam, take heed today,
                F                E
the call of the road can be so unkind, 
                 Am        F      Am
it will lead you on like a fickle kiss 
      Dm     E                       Am
and a wasted life is all that you'll find. 

            
            
Suggest correction
Creating personal tab
Creating personal tab
You can edit any tab online and save it as your Personal.

You can edit, replace or remove any tab part or add personal notes – all changes will be seen only by you.

Personal tabs can be accessed anytime from any device, even offline.
Learn more »
Give kudos to tab author, rate the tab!
1 2 3 4 5
comments
print report bad tab
guest
You may want to rate the tab now too:
select rating
Wanna post a correction for this tab? Suggest correction