Oops, an error
Loading. Please wait.

Was In Der Zeitung Steht Tab

by Doch
968 views 1 this week
no commentswrite comment
1 2 3 4 5
excellent!
x 1
add to favorites
launch autoscroll
font size
0
reset
how to read this tab
guitar tuner
Tab Pro tools
  • play this tab
  • loop segment
  • change instrument
  • show fretboard
  • metronome
Autoscroll
slow
fast
+/-
esc
set tempo
stop
Contributor
Difficulty
D.O.C.H. – Was in der Zeitung steht

(http://www.doch-online.de/)

tabbed by [cAj] Dreckviech (Mailto:Dreckviech@caj-pla.net)


verse (‘Hab heute morgen in der Zeitung gelesen...’)
e|--------------------|4x
B|--------------------|
G|--------------8-88--|
D|--5-5-5-7-8-8-8-88--|
A|--5-5-5-7-8-8-6-66--|
E|--3-3-3-5-6-6-------|

2nd guitar at the 4th line of verse
e|--------10---10-----|
B|----------11---11---|
G|--------------------|
D|--------------------|
A|--------------------|
E|--------------------|

chorus1 (‘Ahhh und es ist mir egal...’)
e|---------------------------------------------|
B|---------------------------------------------|
G|--5-5-5-5-55-8-8-8-8-88-5-5-5-5-55-8-8-8-88--|
D|--5-5-5-5-55-8-8-8-8-88-5-5-5-5-55-8-8-8-88--|
A|--3-3-3-3-33-6-6-6-6-66-3-3-3-3-33-6-6-6-66--|
E|---------------------------------------------|

verse (Instrumental)
e|--------------------|4x
B|--------------------|
G|--------------8-88--|
D|--5-5-5-7-8-8-8-88--|
A|--5-5-5-7-8-8-6-66--|
E|--3-3-3-5-6-6-------|

piano part during the 2nd verse (find out the timing)
e|--9/10-10-10-13-13-10-9-10-9-10-10-9-10------|2x
B|-----------------------------------------11--|
G|---------------------------------------------|
D|---------------------------------------------|
A|---------------------------------------------|
E|---------------------------------------------|

e|-----15-12-12-11-12-12-15-15-12-11-12-12-11-12-13-12--|1x
B|--13--------------------------------------------------|
G|------------------------------------------------------|
D|------------------------------------------------------|
A|------------------------------------------------------|
E|------------------------------------------------------|

e|--9/10-10-10-13-13-10-9-10-9-10-10-9-10------|1x
B|-----------------------------------------11--|
G|---------------------------------------------|
D|---------------------------------------------|
A|---------------------------------------------|
E|---------------------------------------------|

2nd guitar at the 4th line of verse
e|--------10---10-----|
B|----------11---11---|
G|--------------------|
D|--------------------|
A|--------------------|
E|--------------------|

chorus2 (‘Ahhh und es ist mir egal...’)
e|-------------------------------------------------------------|
B|-------------------------------------------------------------|
G|--5-5-5-5-5-5-5-5-8-8-8-8-8-8-8-8-5-5-5-5-5-5-5-5-8-8-8-8-8--|
D|--5-5-5-5-5-5-5-5-8-8-8-8-8-8-8-8-5-5-5-5-5-5-5-5-8-8-8-8-8--|
A|--3-3-3-3-3-3-3-3-6-6-6-6-6-6-6-6-3-3-3-3-3-3-3-3-6-6-6-6-6--|
E|-------------------------------------------------------------|

bridge (‘Liest das denn keiner außer mir?’)
e|------------------|3x    e|--------------------------------|
B|------------------|      B|--------------------------------|
G|--------8~-8-8-8--|      G|-------8~-88-8-888-------88-8-88|
D|--5~-8~-8~-8-8-8--|      D|--5/8~-8~-88-8-888-------88-8-88|
A|--5~-8~-6~-6-6-6--|      A|--5/8~-6~-66-6-668-------66-6-66|
E|--3~-6~-----------|      E|--3/6~--------------------------|

verse (‘Hab heute morgen in der Zeitung gelesen...’)
e|--------------------|1x at the end
B|--------------------|
G|--------------8-88--|
D|--5-5-5-7-8-8-8-88--|
A|--5-5-5-7-8-8-6-66--|
E|--3-3-3-5-6-6-------|

2nd guitar (starts briefly after 2n line of verse) 
e|--15-15-15-1515-1515-15151515-10-10-10-1010-1010-10101010--|
B|--15-15-15-1515-1515-15151515-11-11-11-1111-1111-11111111--|
G|-----------------------------------------------------------|
D|-----------------------------------------------------------|
A|-----------------------------------------------------------|
E|-----------------------------------------------------------|

chorus1 (‘Ahhh und es ist mir egal...’)
e|---------------------------------------------|
B|---------------------------------------------|
G|--5-5-5-5-55-8-8-8-8-88-5-5-5-5-55-8-8-8-88--|
D|--5-5-5-5-55-8-8-8-8-88-5-5-5-5-55-8-8-8-88--|
A|--3-3-3-3-33-6-6-6-6-66-3-3-3-3-33-6-6-6-66--|
E|---------------------------------------------|

Enjoy!
Write me if it's not wright!
comments
We did not receive enough feedback on this tab! Please rate:
print report bad tab
1 2 3 4 5
I want to post or [tab]
guest
You may want to rate the tab now too:
select rating
Please do not post tabs as comments. Select "correction" instead!