Oops, an error
Loading. Please wait.

Loircher Punk Rock Tab

40 views 1 this week
no commentswrite comment
1 2 3 4 5
please rate
add to favorites
launch autoscroll
font size
0
reset
how to read this tab
guitar tuner
Autoscroll
slow
fast
+/-
esc
set tempo
stop
Help us to improve Ultimate-Guitar.com Take our survey!
×
Author
Difficulty
Ace-Ter 44
novice
Intro

------------------------------------------[ x2 ]-----------------------|
-----------------------------------------------------------------------|
-----------------------------------------------------------------------|
---7---7---7---7---7-7---7-7--7-7--7-7---------------------------------|
-0---0---0---0---9-----9-----8----8------------------------------------|
-----------------------------------------------------------------------|



Couplet 1

------guitar 1 [ x2]-----------------------------guitar 2 [ x2 ]-------|
-----------------------------------------------------------------------|
-----------------------------------------------------------------------|
---7--7--7--7----9-9---9-9---------------------------------------------|
-0--0--0--0--0-0----0-0---------------7-7-7-7-7-7-7-7-4-4-4-4-3-3-3-3--|
--------------------------------------5-5-5-5-5-5-5-5-2-2-2-2-1-1-1-1--|



Pré'refrain

-----------------------------------------------------------------------|
-----------------------------------------------------------------------|
-----------------------------------------------------------------------|
-----------------------------------------------------------------------|
-3-3-3-3-3-3-3-3-5-5-5-5-5-5-5-5---------------------------------------|
-1-1-1-1-1-1-1-1-3-3-3-3-3-3-3-3------[palm mute]----------------------|



Refrain X2

-----------------------------------------------------------------------|
-guitar 1-----------5-5-5-5-5-5-7-7-8--8--8--8--8--8--12-12------------|
-----------------------------------------------------------------------|
-----------------------------------------------------------------------|
--------------------7-7-7-7-7-7-9-9-10-10-10-10-10-10-14-14------------|
-guitar 2-----------5-5-5-5-5-5-7-7-8--8--8--8--8--8--12-12------------|


-----------------------------------------------------------------------|
-guitar 1-----------3--3--3--3--3--3--5-5-5-5-5-5-5-5-7-7--------------|
-----------------------------------------------------------------------|
-----------------------------------------------------------------------|
--------------------12-12-12-12-12-12-5-5-7-7-7-7-7-7-9-9--------------|
-guitar 2-----------10-10-10-10-10-10-3-3-5-5-5-5-5-5-7-7--------------|



Couplet 2

----------------------[ x2 ]--------------------------[ x2 ]-----------|
-----------------------------------------------------------------------|
--------------9--9--9--9--9--9--9--8----------13-13-13-14-13-13-13-15--|
-guitar 1-----7--7--7--7--7--7--7--6----------11-11-11-12-11-11-11-13--|
------------77-77-77-77-44-44-33-33---------77-77-77-77-44-44-33-33----|
-guitar 2---55-55-55-55-22-22-11-11---------55-55-55-55-22-22-11-11----|



Pré'refrain 2

-----------------------------------------------------------------------|
-----------------------------------------------------------------------|
-----------------------------------------------------------------------|
---------3-------3-------3-------------------5-------5-----------------|
---------3-------3-------3-------------------5-------5-----------------|
-x-x-x-x-1---x-x-1---x-x-1--x-x------x-x-x-x-3---x-x-3-----------------|



REFRAIN X2



(partie acoustique)



Solo guitar1

-----------------------------------------------------------------------|
-----------------------------------------------------------------------|
------------------------------------------------------8-9-9^-8-9-9^----|
-----------------------9^-9^-----9^-9^---------------------------------|
-0-0-0-0-0-0-0-0---0-0-------0-0-------0-0-0-0-0-0-0-0-----------------|
-----------------------------------------------------------------------|

-----------------------------------------------------------------------|
-----------------------------------------------------------------------|
------------------9-9-9-9-9-9-9-8-8-------------------9^-7-------------|
----------------------------------------------------------9-7----------|
-0-0-0-0-0-0-0-0----------------------0-0-0-0-0-0-0-0---------9-7-5----|
-----------------------------------------------------------------------|

Solo guitar2 (à superposer avec le solo guitar1)

-----------------------------------------------------------------------|
-----------------------------------------------------------------------|
-----------------------------------------------------------------------|
-7----------------4----------3----2---7--------------4--------3---2----|
-7----------------4----------3----2---7--------------4--------3---2----|
-5----------------2----------1----0---5--------------2--------1---0----|

-----------------------------------------------------------------------|
-----------------------------------------------------------------------|
-----------------------------------------------------------------------|
-----------------------------------------------------------------------|
-7-7-7-7-7-7-7-7-4-4-4-4-4-3-3-3-2-2-2-7-7-7-7-7-7-7-------------------|
-5-5-5-5-5-5-5-5-2-2-2-2-2-1-1-1-0-0-0-5-5-5-5-5-5-5-------------------|



REFRAIN X2


Outro

-----------------------------------------------------------------------|
-----------------------------------------------------------------------|
-----------------------------------------------------------------------|
-----------------------------------------------------------------------|
-7-----------------7------------------7---------------7----------------|
-5-----------------5------------------5---------------5----------------|



http://www.myspace.com/doctormass
Suggest correction new What's this?
You can suggest a correction to this tab. Community and Mods will review your correction and vote to approve or reject it.
comments
We did not receive enough feedback on this tab! Please rate:
print report bad tab
1 2 3 4 5
guest
You may want to rate the tab now too:
select rating
Please do not post tabs as comments. Select "correction" instead!