Oops, an error
Loading. Please wait.

Human tab

version 3
version 3

Whole song

  • Version for standard ukulele tuning, but probably ... Show more
277 views 30 this week
1 commentread comment
1 2 3 4 5
2 more votes to show rating
add to favorites
×
Save as Personal and add changes to this tab that will be seen only by you. Learn more ›
×
You can save this tab as Personal to edit and correct it or add notes. All changes will be seen only by you. Learn more »
launch autoscroll
font size
0
reset
how to read this tab
guitar tuner
edit
Autoscroll
slow
fast
+/-
esc
set tempo
stop
The amount of times the D string is played (just for long amounts of time) is definitely off. It was hard to
measure the amount of times it was played.

[Intro]
e|----------------------------------------------------------------|
B|----------------------------------------------------------------|
G|----------------------------------------------------------------|
D|----0-0-0-0-0-0-0-0-0-0---0-0-0---0-0-0-0-0-0-0-0-0-0-0-0-0-0-0-| 
A|-0----------------------2-------0-------------------------------|
E|----------------------------------------------------------------|

[Verse 1]
e|-----------------------------------------------------------------------|
B|-----------------------------------------------------------------------|
G|-----------------------------------------------------------------------|
D|-0-0-0-0-0-0-0-0-0-0-0-0-0-0-0---0-0-0---0-0-0-0-0-0-0-0-0-0-0-0-0-0-0-| x2
A|-------------------------------2-------0-------------------------------|
E|-----------------------------------------------------------------------|

I wanna pick you up and scoop you out
I want the secrets your secrets haven't found

e|-------------------------------------------------------------------------------------|
B|-------------------------------------------------------------------------------------|
G|-5---------------------5-------------------------------------------------------------|
D|---0-0-0-0-0-0-0-0-0-0---0-0-0-0-0-0-0-0-0-0---0-0-0---0-0-0-0-0-0-0-0-0-0-0-0-0-0-0-|
A|-5---------------------5---------------------2-------0-------------------------------|
E|-------------------------------------------------------------------------------------|

Paint me in trust
I'll be your best friend
Call me the one
This night just can't end
Oh, oh

e|-----------------------------------------------------------------------|
B|-----------------------------------------------------------------------|
G|-----------------------------------------------------------------------|
D|-0-0-0-0-0-0-0-0-0-0-0-0-0-0-0---0-0-0---0-0-0-0-0-0-0-0-0-0-0-0-0-0-0-| x2
A|-------------------------------2-------0-------------------------------|
E|-----------------------------------------------------------------------|

Will you share your soul with me?
Unzip your skin and let me have a see

e|-------------------------------------------------------------------------------------|
B|-------------------------------------------------------------------------------------|
G|-5---------------------5-------------------------------------------------------------|
D|---0-0-0-0-0-0-0-0-0-0---0-0-0-0-0-0-0-0-0-0---0-0-0---0-0-0-0-0-0-0-0-0-0-0-0-0-0-0-|
A|-5---------------------5---------------------2-------0-------------------------------|
E|-------------------------------------------------------------------------------------|

Paint me in trust
I'll be your best friend
Call me the one
This night just can't end
Oh, oh

[Chorus 1]

e|-----------------------------------------------------------------------------------------------------------|
e|-----------------------------------------------------------------------------------------------------------|
G|-----------------------------------------------------------------------------------------------------------|
D|---0-0-0-0-0-0-0---0-0-0-0-0-0-0---0-0-0-0-0-0-0---0-0-0-0-0-0-0---0-0-0-0-0-0-0---0-0-0-0-0-0-0-0-0-0---0-|
A|-3-------------------------------2---------------1---------------0---------------0---------------------2---|
E|-----------------------------------------------------------------------------------------------------------|

e|-------------------------------------|
B|-------------------------------------|
G|-------------------------------------|
D|-0-0---0-0-0-0-0-0-0-0-0-0-0-0-0-0-0-|
A|-----0-------------------------------|
E|-------------------------------------|

e|-----------------------------------------------------------------------------------------------------------|
e|-----------------------------------------------------------------------------------------------------------|
G|-----------------------------------------------------------------------------------------------------------|
D|---0-0-0-0-0-0-0---0-0-0-0-0-0-0---0-0-0-0-0-0-0---0-0-0-0-0-0-0---0-0-0-0-0-0-0---0-0-0-0-0-0-0-0-0-0---0-|
A|-3-------------------------------2---------------1---------------0---------------0---------------------2---|
E|-----------------------------------------------------------------------------------------------------------|

e|-------------------------------------|
B|-------------------------------------|
G|-------------------------------------|
D|-0-0---0-0-0-0-0-0-0-0-0-0-0-0-0-0-0-|
A|-----0-------------------------------|
E|-------------------------------------|

Oh, I'm so human
We're just human

[Verse 2]

e|-----------------------------------------------------------------------|
B|-----------------------------------------------------------------------|
G|-----------------------------------------------------------------------|
D|-0-0-0-0-0-0-0-0-0-0-0-0-0-0-0---0-0-0---0-0-0-0-0-0-0-0-0-0-0-0-0-0-0-| x2
A|-------------------------------2-------0-------------------------------|
E|-----------------------------------------------------------------------|

Lean for me, and I'll fall back
You'll fit so nicely, you'll keep me intact

e|-------------------------------------------------------------------------------------|
B|-------------------------------------------------------------------------------------|
G|-5---------------------5-------------------------------------------------------------|
D|---0-0-0-0-0-0-0-0-0-0---0-0-0-0-0-0-0-0-0-0---0-0-0---0-0-0-0-0-0-0-0-0-0-0-0-0-0-0-|
A|-5---------------------5---------------------2-------0-------------------------------|
E|-------------------------------------------------------------------------------------|

Paint me in trust
I'll be your best friend
Call me the one
This night just can't end
Oh, oh

e|-----------------------------------------------------------------------|
B|-----------------------------------------------------------------------|
G|-----------------------------------------------------------------------|
D|-0-0-0-0-0-0-0-0-0-0-0-0-0-0-0---0-0-0---0-0-0-0-0-0-0-0-0-0-0-0-0-0-0-| x2
A|-------------------------------2-------0-------------------------------|
E|-----------------------------------------------------------------------|

I want to give you your grin
So tell me you can't bear a room that I'm not in

e|-------------------------------------------------------------------------------------|
B|-------------------------------------------------------------------------------------|
G|-5---------------------5-------------------------------------------------------------|
D|---0-0-0-0-0-0-0-0-0-0---0-0-0-0-0-0-0-0-0-0---0-0-0---0-0-0-0-0-0-0-0-0-0-0-0-0-0-0-|
A|-5---------------------5---------------------2-------0-------------------------------|
E|-------------------------------------------------------------------------------------|

Paint me in trust
I'll be your best friend
Call me the one
This night just can't end
Oh, oh

[Chorus 2]

e|-----------------------------------------------------------------------------------------------------------|
e|-----------------------------------------------------------------------------------------------------------|
G|-----------------------------------------------------------------------------------------------------------|
D|---0-0-0-0-0-0-0---0-0-0-0-0-0-0---0-0-0-0-0-0-0---0-0-0-0-0-0-0---0-0-0-0-0-0-0---0-0-0-0-0-0-0-0-0-0---0-|
A|-3-------------------------------2---------------1---------------0---------------0---------------------2---|
E|-----------------------------------------------------------------------------------------------------------|

e|-------------------------------------|
B|-------------------------------------|
G|-------------------------------------|
D|-0-0---0-0-0-0-0-0-0-0-0-0-0-0-0-0-0-|
A|-----0-------------------------------|
E|-------------------------------------|

e|-----------------------------------------------------------------------------------------------------------|
e|-----------------------------------------------------------------------------------------------------------|
G|-----------------------------------------------------------------------------------------------------------|
D|---0-0-0-0-0-0-0---0-0-0-0-0-0-0---0-0-0-0-0-0-0---0-0-0-0-0-0-0---0-0-0-0-0-0-0---0-0-0-0-0-0-0-0-0-0---0-|
A|-3-------------------------------2---------------1---------------0---------------0---------------------2---|
E|-----------------------------------------------------------------------------------------------------------|

e|-------|
B|-------|
G|-------|
D|-0-0---|
A|-----0-|
E|-------|

            
            
Suggest correction
Creating personal tab
Creating personal tab
You can edit any tab online and save it as your Personal.

You can edit, replace or remove any tab part or add personal notes – all changes will be seen only by you.

Personal tabs can be accessed anytime from any device, even offline.
Learn more »
Give kudos to tab author, rate the tab!
1 2 3 4 5
comments
print report bad tab
1 comment total.
0 reply
OddAlice 16 Sep 12, 2017 08:03 AM

This is absolutely perfect

guest
You may want to rate the tab now too:
select rating
Wanna post a correction for this tab? Suggest correction