Oops, an error
Loading. Please wait.

Little Room ukulele

version 3
version 3

Whole song

  • These are most of the chords Dodie uses in the son... Show more
31 views 15 this week
no commentswrite comment
1 2 3 4 5
3 more votes to show rating
add to favorites
×
Save as Personal and add changes to this tab that will be seen only by you. Learn more ›
×
You can save this tab as Personal to edit and correct it or add notes. All changes will be seen only by you. Learn more »
launch autoscroll
font size
0
reset
transpose
0
reset
display chords
guitar tuner
edit
Autoscroll
slow
fast
+/-
esc
set tempo
stop
About this tab version
These are most of the chords Dodie uses in the song, but in tab form. I have altered some chords to the way I usually play them. The original video can be found here: https://www.youtube.com/watch?v=CgbuHiWtV3Q. Was this info helpful? Yes No
Strumming Is this strumming pattern correct? Yes No
115 bpm
1
 
&
 
2
 
&
 
Listen
[Intro]

A|-3----5----3----5------3----0----3----0-|
E|-0----0----0----0------1----1----1----1-|    x2
C|-0----0----0----0------0----0----0----0-|
G|-0----0----0----0------0----0----0----0-|

[Verse 1]

A|-3----5----3----5------3----0----3----0------3----5----3----5------2----2----2----2-|
E|-0----0----0----0------1----1----1----1------0----0----0----0------1----1----1----1-|
C|-0----0----0----0------0----0----0----0------0----0----0----0------2----2----2----2-|
G|-0----0----0----0------0----0----0----0------0----0----0----0------0----0----0----0-|

A|-0----0----0----0------0----0----0----0----|
E|-0----0----0----0------2----2----2----2----|
C|-0----0----0----0------2----2----2----2----|
G|-2----4----5----9------2----2----2----2----|


Goodbye little room, you've served me well

I'm sorry for all the nail polish and tea I've spilled

You saw my secrets, my fears, my best friend, my tears

My loved and lost encased inside these walls


[Hook]

A|-----0-----3-----|
E|-----1-----1-----|
C|-----0-----0-----|
G|-----0-----1-----|

A little girl grew up in here

She's far too grown up to live here any more


[Instrumental]

A|-3----5----3----5------3----0----3----0-|
E|-0----0----0----0------1----1----1----1-|    x2
C|-0----0----0----0------0----0----0----0-|
G|-0----0----0----0------0----0----0----0-|

[Verse 2]

A|-3----5----3----5------3----0----3----0------3----5----3----5------2----2----2----2-|
E|-0----0----0----0------1----1----1----1------0----0----0----0------1----1----1----1-|
C|-0----0----0----0------0----0----0----0------0----0----0----0------2----2----2----2-|
G|-0----0----0----0------0----0----0----0------0----0----0----0------0----0----0----0-|

A|-0----0----0----0------0----0----0----0----|
E|-0----0----0----0------2----2----2----2----|
C|-0----0----0----0------2----2----2----2----|
G|-2----4----5----9------2----2----2----2----|

If I'm honest, the bunk bed won hands down

I almost miss the fuchsia floor and dressing gown

Flower stickers, books and toys, cringey notes to year 6 boys

Now a tenancy agreement's on the floor


[Hook]

A|-----0-----3-----|
E|-----1-----1-----|
C|-----0-----0-----|
G|-----0-----1-----|

A little girl grew up in here

She's far too grown up to live here any more


[Break]

A|-3----5----3----5------3----0----3----0-|
E|-0----0----0----0------1----1----1----1-|    x2
C|-0----0----0----0------0----0----0----0-|
G|-0----0----0----0------0----0----0----0-|

A|-0----0----0----0------2----2----2----2------0----0----0----0----|
E|-0----0----0----0------3----3----3----3------1----1----1----1----|    x2
C|-0----0----0----0------2----2----2----2------0----0----0----0----|
G|-2----2----2----2------0----0----0----0------0----0----0----0----|

Ahhhhh


[Bridge]

A|-5------0------5------2------0------0------0------0------0------|
E|-0------1------0------1------0------0------0------0------2------|
C|-0------0------0------2------0------0------0------0------2------|
G|-0------0------0------0------2------4------5------9------2------|

So here we are, the final goodbye

I've got the leave the nest but I'm not sure how to fly

Thank you room, you'll always be my warmest place, a home to me

Turn off the lights and finally close the door


[Hook]

A|-----0-----3-----|
E|-----1-----1-----|
C|-----0-----0-----|
G|-----0-----1-----|

A little girl grew up in here

She's far too grown up to live here anymore


[Outro]

A|-3----5----3----5------3----0----3----0-|          |--3--|
E|-0----0----0----0------1----1----1----1-|    x2    |--0--|
C|-0----0----0----0------0----0----0----0-|          |--0--|
G|-0----0----0----0------0----0----0----0-|          |--0--|
Suggest correction
Creating personal tab
Creating personal tab
You can edit any tab online and save it as your Personal.

You can edit, replace or remove any tab part or add personal notes – all changes will be seen only by you.

Personal tabs can be accessed anytime from any device, even offline.
Learn more »
Give kudos to tab author, rate the tab!
1 2 3 4 5
comments
print report bad tab
guest
You may want to rate the tab now too:
select rating
Wanna post a correction for this tab? Suggest correction